» » »

Fast Fuse Tabs (ver.5)

Artists:  A B C D E F G H I J K L M N O P Q R S T U V W X Y Z # 

Fast Fuse Tabs (ver.5)

Kasabian
Rating:
3/5 (4 votes)

Hard to play? Try these video lessons and learn fast.
                

CHORDS:

F#: |x-4-4-3-x-x|
Bm: |x-x-4-4-3-x|
G:  |x-5-5-4-x-x|


CHORUS: (Play slow for beginning.)

F#
O baby I was born, with a fast fuse, 
                 Bm
I got no time to love, just a city to abuse,

F#
O baby I was born, with a fast fuse, 
                 Bm
I got no time to love, just a city to abuse.

F#  Bm  


RIFF:

  F#                
|------------------|-------------------|------------------|-----------------|
|-7-7-7-7--7-7-7-7-|-7-7-7-7--7--5-7---|------------------|-----------------|
|------------------|-----------------6-|------------------|-----------------|
|------------------|-------------------|-4-4-4-4--4-4-4-4-|-4-4-4-4--4-4-7-7|
|------------------|-------------------|------------------|-----------------|
|------------------|-------------------|------------------|-----------------|

  Bm
|------------------|------------------|------------------|------------------|
|------------------|--------------5-5-|-7-7-7-7--7-7-7-7-|-7-7-7-7--7-7-7-7-|
|-4-4-4-4--4-4-4-4-|-4-4-4-4--4-4-----|------------------|------------------|
|------------------|------------------|------------------|------------------|
|------------------|------------------|------------------|------------------|
|------------------|------------------|------------------|------------------|


CHORUS: X2 (With riff.)


VERSE 1:

F#                                          
Come get me, If you're fine don't arrest me, Im'ma listen to 
Bm
shy wild, S.E. done, That's right, Cos' she's the morning sun,
F# 
Come get me, All you people can't touch me, I'm a hooligan 
Bm
Cry, shy, sh*t don't scatter, It don't matter, give me one, two, three.


PRE-CHORUS:

F# 
Come light in the skylight,
F# 
Come light me in the sky.


CHORUS: X2 (With riff.)


CHORUS END: (Same chords as chorus.)

  F#                
|--------------|-----------|--------------|-----------|
|-5--7-5-7-5---|-5--7-5-7--|-5--7-5-7-5---|-5--7-5-7--|
|------------6-|-----------|------------6-|-----------|
|--------------|-----------|--------------|-----------|
|--------------|-----------|--------------|-----------|
|--------------|-----------|--------------|-----------|

  Bm
|-5--7-5-7-5---|-5--7-5-7--|-5--7-5-7-5---|-7-7-7-5----|
|------------7-|-----------|------------7-|---------7--|
|--------------|-----------|--------------|------------|
|--------------|-----------|--------------|------------|
|--------------|-----------|--------------|------------|
|--------------|-----------|--------------|------------|


VERSE 2:

F# 
Oooh How dare you! Now it's time to address you,
F# 
I'm the reason you came, shame, suck my name
see my fish, poppin' up your way.
F# 
It's getting hotter, Now I'm spitting out lava
B
I was better in the words, chess, genuine stock
hear the pot going, tick, tick, tock... 


PRE-CHORUS:

F# 
Come light in the skylight,
F# 
Come light me in the sky,
F# 
Come light in the skylight,
F# 
Come light me in the sky.


CHORUS: (Alternative.)

F#
O baby I was born, with a fast fuse, 
                 Bm
I got no time to love, just a city to abuse,

F#
In the middle of the night, when they come for you, 
                 Bm
Where you gonna' be?, whatcha' gonna' do?


OUTRO: (Play chorus end riff over the top.)

F#
Hit me, call me, hit me, call me, 
I'm gonna be there, Hey! Hey!

Bm
Hit me, call me, hit me, call me, 
I'm gonna be there, Hey! Hey!

F#
Hit me, call me, hit me, call me, 
I'm gonna be there, Hey! Hey!

Bm
Hit me, call me, hit me, call me, 
I'm gonna be there, Hey! Hey!

END RIFF: (play till end, various breaks throughout.)

  F#                G
|-----------------------|
|-----------------------|
|-3--3-3--3-3--3-3--4-4-|
|-4--4-4--4-4--4-4--5-5-|
|-4--4-4--4-4--4-4--5-5-|
|-----------------------|

Enjoy!
            
Hard to play? Try these video lessons and learn fast. | Correct




comments powered by Disqus
↑ Back to top | Tablatures and chords are parodies/interpretations of the original songs. You may use it for private study, scholarship, research or language learning purposes only