» » »

Fast Fuse Bass tabs (ver.2)

Artists:  A B C D E F G H I J K L M N O P Q R S T U V W X Y Z # 

Fast Fuse Bass tabs (ver.2)

Kasabian
Rating:
5/5 (4 votes)

Hard to play? Try these video lessons and learn fast.
                Intro/Main Riff:
00:25-01:32, 01:43-01:53, 02:52-03:02, 03:26-03:40--------------------
G|----------------------------------------789-7-9-----------789-7-9--------|
D|----789-7-9-----------789-7-9-------9-9---------9-9/--9-9---------9-9/---|
A|9-9---------9-----9-9---------9-9----------------------------------------|
E|-------------------------------------------------------------------------|

Riff 2:
01:33-01:42, 02:42-02:51, 03:03-3:25--|
G|------------------------------------|
D|--------------------------789-797---|
A|9-9-9-9-9-9-9-9-9-9-9-9-9-----------|
E|------------------------------------|

Riff 3:
02:04-02:26, 03:40-end,
G|------------------------------9----|
D|----789-----789-----789-----79-----|
A|9-99----9-99----9-99----9-99-------|
E|-----------------------------------|

G|-----789-----789-----789-----987--|
D|-9-99----9-99----9-99----9-99-----|
A|----------------------------------|
E|----------------------------------|

Updated on 3rd May 2009
            
Hard to play? Try these video lessons and learn fast. | Correct




comments powered by Disqus
↑ Back to top | Tablatures and chords are parodies/interpretations of the original songs. You may use it for private study, scholarship, research or language learning purposes only