» » »

Kasabian, Fast Fuse Tabs (ver.1)

Artists:  A B C D E F G H I J K L M N O P Q R S T U V W X Y Z # 

Fast Fuse Tabs (ver.1)

Kasabian Tabs
Rating:
4/5 (6 votes)
Hard to play? Try these video lessons and learn fast.
                Due to the nature of the song
I've formatted it in three simple parts.
Hopefully this isn't too confusing!


Chords:

Verse/Chorus: F#m Bm
Break: F# 
Bridge: F#m D Bm C#


Sequence:

Intro x2
Riff 1 
Riff 1 & Riff 2 x3
Riff 1
Riff 1 & Riff 2
Riff 3 x2 & Riff 4
Riff 1 & Riff 2
Riff 2
Riff 6 & Riff 7 x2
Bridge x2
Riff 5 x4
Riff 1 
Riff 3 x4 & Riff 4
Riff 1 & Riff 2 x2
Riff 6 & Riff 7 x4


Riffs:

Intro:
e-------------------------------------------|
B-------------------------------------------|
G--------------------------4-3--------------|
D----4-3-------4-3-------------4~-----------|
A--------4~--------4~---2-------------------|
E-2---------2---------------------5-7-444-5-|

Riff 1:
e-----------------------------------------------------------------------|
B-----------------------------------------------------------------------|
G-----------------------------------------------------------------------|
D----------------------------------------0-2-0--0----------0-2-0--0-----|
A-----0-2-0--0----------0-2-0--0-----2-2-------2--2-2--2-2-------2--2-2-|
E-2-2-------2--2-2--2-2-------2--2-2------------------------------------|

Riff 2:
e-14-14-14-14-14-14-14-14-14-14-12-14-------------------------------------|
B------------------------------------14-14---------------------------12---|
G------------------------------------------11-11-11-11-11-11-11-11-11--11-|
D-------------------------------------------------------------------------|
A-------------------------------------------------------------------------|
E-------------------------------------------------------------------------|

e------------------------------14--14-14-14-14-14-14-14-14-14-14-|
B-12-12-12-12-12-12-12-12-12-12--12------------------------------|
G----------------------------------------------------------------|
D----------------------------------------------------------------|
A----------------------------------------------------------------|
E----------------------------------------------------------------|

Riff 3:
e-----------------------------------------|
B-----------------------------------------|
G-----------------------------------------|
D-----------------------------------------|
A---------------------------0-2-0---------|
E-2-2-2-2-2-2-2-2-2-2-2-2-2-------2-2-2-2-|

Riff 4:
1st Time
e----------------------------------|
B-7-5-----------------7-5-------7~-|
G------6-4-3-4-6-4-3~-----6-4-3----|
D----------------------------------|
A----------------------------------|
E----------------------------------|

2nd Time
e-------------------------------------------------------------------|
B-7-5-----------------7-5---------7-5-----------------7-5--------7~-|
G------6-4-3-4-6-4-3~-----6-4-3-------6-4-3-4-6-4-3~-------6-4-3----|
D-------------------------------4~----------------------------------|
A-------------------------------------------------------------------|
E-------------------------------------------------------------------|

Riff 5:
e--------------------------|
B--------------------------|
G--------------------------|
D-4-x6-\-9~-9~-9~-9~-------|
A-4-----------------9~-9~/-|
E-2------------------------|

Riff 6:
e----------------------------------------|
B----------------------------------------|
G----------------------------------------|
D----------------------------------------|
A-----0h2-4-----0h2-4----0h2-4-----0h2-4-|
E-2-2-------2-2-------2-2------2-2-------|

e----------------------------------------|
B----------------------------------------|
G----------------------------------------|
D-----0h2-4----0h2-4-----0h2-4-----0h2-4-|
A-2-2-------2-2------2-2-------2-2-------|
E----------------------------------------|

Riff 7:
e---------------------------------------------------------|
B---------------------------------------------------------|
G-9-11-11-11-11-9-11-11-11-11-9-11-11-11-11-9-11-11-11-11-|
D---------------------------------------------------------|
A---------------------------------------------------------|
E---------------------------------------------------------|

e--------------------------------------------------------------------|
B-10-12-12-12-12-10-12-12-12-12-10-12-12-12-12-12b-12b-12b-12b-10----|
G-----------------------------------------------------------------11-|
D--------------------------------------------------------------------|
A--------------------------------------------------------------------|
E--------------------------------------------------------------------|
            

comments powered by Disqus
↑ Back to top | Kasabian Tabs for Fast Fuse. Lyrics for acoustic guitar and electric guitar. Tablatures and chords are parodies/interpretations of the original songs. You may use it for private study, scholarship, research or language learning purposes only