» » »

Kasabian, Empire Bass tabs (ver.4)

Artists:  A B C D E F G H I J K L M N O P Q R S T U V W X Y Z # 

Empire Bass tabs (ver.4)

Kasabian Tabs
Rating:
4/5 (7 votes)
Hard to play? Try these video lessons and learn fast.
                Kasabian - Empire

Main Riff (this is like 100% right arnt you lucky)

G|-----------------|-----------------|-----------------|
D|---5---5---5---5-|---5---5---5---5-|---5---5---5---5-|
A|-7---7---7---7---|-7---7---7---7---|-7---7---7---7---|
E|-----------------|-----------------|-----------------|

G|-----------------|-----------------|-----------------|
D|---5---5---5---5-|-----------------|-----------------|
A|-7---7---7---7---|---5---5---5---5-|---0---0---0---0-|
E|-----------------|-7---7---7---7---|-2---2---2---2---|

Chorus (im not so shure about this part but its the right idea)

G|-------------------------------|
D|-------------------------------|
A|-3-333--6-666-10-10101010-8-88-|
E|-------------------------------|

and thats pretty much it =D
            

comments powered by Disqus
↑ Back to top | Kasabian Bass for Empire. Lyrics for acoustic guitar and electric guitar. Tablatures and chords are parodies/interpretations of the original songs. You may use it for private study, scholarship, research or language learning purposes only