» » »

Cutt Off Tabs (ver.5)

Artists:  A B C D E F G H I J K L M N O P Q R S T U V W X Y Z # 

Cutt Off Tabs (ver.5)

Kasabian
Rating:
0/5 (0 votes)

Hard to play? Try these video lessons and learn fast.
                This the ending riff from Cutt Off.

Riff 1:
e-------------------|
B--------------7-7--|
G----8-8-x-7-7---10-|
D-10----------------|
A-------------------|
E-------------------|

Riff 2:
e---------------------|
B---------------------|
G----8-8-x-7-7--------|
D-10-----------8-8----|
A------------------10-|
E---------------------|

Just repeat Riff 1 then Riff 2
over and over again.
            
Hard to play? Try these video lessons and learn fast. | Correct




comments powered by Disqus
↑ Back to top | Tablatures and chords are parodies/interpretations of the original songs. You may use it for private study, scholarship, research or language learning purposes only