» » »

Club Foot Bass tabs (ver.6)

Artists:  A B C D E F G H I J K L M N O P Q R S T U V W X Y Z # 

Club Foot Bass tabs (ver.6)

Kasabian
Rating:
0/5 (0 votes)

Hard to play? Try these video lessons and learn fast.
                This is my very first tab, i think its very accurate and is what i play myself. 
if u can be arsed.The tempo is pretty fast, so i wouldnt reccomend this song for beginners.

 Intro/Chorus
G|------------8--8--8----------------12-10-8-10-8----------------|
D|----------10-10-10------------------------------10-------------|
A|---------------------------------------------------------------|
D|1010101010-------------101010101010----------------------------|

Verses/Outro
G|---------------------------------------------------------------|
D|---------------------------------------------------------------|
A|---------------------------------------------------------------|
D|10101010101010101010101010/151515------------------------------|

Solo (this bit im not sure is 100% accurate, but it sounds close enough. Its just the 
bit that i think is a bit out.)
G|-----8---12-10-8-10-8-------8-10----------------8-10-8-10-8-12-|
D|-1010-----------------10---------8-10------8-10----------------|
A|--------------------------------------8-10---------------------|
D|---------------------------------------------------------------|
  (repeated picking of the same note)
G|-12--10-12--8-10-12-15-17-19-17-15-12-10-12-10-8---------------|
D|------------------------------------------------10-------------|
A|---------------------------------------------------------------|
D|---------------------------------------------------------------|

Order of play:

Intro/Chorus x4
Verses/Outro x4
Intro/Chorus x2
Verses/Outro x4
Intro/Chorus x4
Solo
Intro/Chorus x4
Verses/Outro x8

Happy Playing!!!!
            
Hard to play? Try these video lessons and learn fast. | Correct




comments powered by Disqus
↑ Back to top | Tablatures and chords are parodies/interpretations of the original songs. You may use it for private study, scholarship, research or language learning purposes only