» » »

Club Foot Bass tabs (ver.5)

Artists:  A B C D E F G H I J K L M N O P Q R S T U V W X Y Z # 

Club Foot Bass tabs (ver.5)

Kasabian
Rating:
3/5 (2 votes)

Hard to play? Try these video lessons and learn fast.
                Tuning:Standard
Bass:Distorted Effect (Drive)

Intro/Chorus
G---------5-8-5-8-5-8--------12-10-8-10-8----------|
D-----------------------------------------10-------|
A-33333--------------------------------------------|
E----------------------88888-----------------------|

Verse
G-------------------------------|
D-------------------------------|
A-------------------------------|
E-8888888888888/131313----------|

Bridge
G----8-----12-10-8-10-8----8-10-8----0-3-0-5-0-8-0-10-0-|
D-10--------------------10--------10--------------------|
A-------------------------------------------------------|
E-------------------------------------------------------|

Listen to the song to figure out rhythm:)
G-12-12-12-12-12-12-12-12-10-10-10-10-10-10-10-10-|
D-------------------------------------------------|
A-------------------------------------------------|
E-------------------------------------------------|

G-12-12-12-12-12-12-12-12-10-10-10-10-10-10-10-10-|
D-------------------------------------------------|
A-------------------------------------------------|
E-------------------------------------------------|

G-15-15-15-15-17-17-17-17-19-19-19-19-17-17-17-17-|
D-------------------------------------------------|
A-------------------------------------------------|
E-------------------------------------------------|

G-15-15-15-15-12-12-12-12-10-10-10-10-12-12-12-12-|
D-------------------------------------------------|
A-------------------------------------------------|
E-------------------------------------------------|

G-10-10-10-10-10-10-8-8-8-8-----------------------|
D-------------------------------------------------|
A-------------------------------------------------|
E-------------------------------------------------|

Repeat chorus and verse

Hope you enjoy...plz rate and comment...thnks
            
Hard to play? Try these video lessons and learn fast. | Correct




comments powered by Disqus
↑ Back to top | Tablatures and chords are parodies/interpretations of the original songs. You may use it for private study, scholarship, research or language learning purposes only