» » »

Umbra Bass tabs (ver.1)

Artists:  A B C D E F G H I J K L M N O P Q R S T U V W X Y Z # 

Umbra Bass tabs (ver.1)

Karnivool
Rating:
0/5 (0 votes)

Tabs too difficult? Try these video lessons and learn fast.
                Umbra by Karnivool tabbed for a 6-string bass (could be played on a 4 or 5 string 
with some re-positioning). Even though Karnivool normally uses an alternate 
tuning, this tab is in standard tuning.


Karnivool - Umbra


On the 8th time through play 11 on G instead of 10 on C
C| 11---------13---------13/15-13p------------10--------------- |
G| ----13--11-----13--11-----------13--11-13-----13--11-13--11- |
D|O------------------------------------------------------------O|
A| ------------------------------------------------------------ |
E|O------------------------------------------------------------O| X8
B| ------------------------------------------------------------ | 




                        1________ 2___________ 3___________             
                                 |            | (semiquavers)|          
C| ----------------------------- |----------- |------------|----------------|
G| ----------------------------- |----------- |------------|----------------|
D|O-----------------------------O|-----------O|------------|----------------|
A| ----------------------------- |----------- |------------|---2------------|
E|O0--0--4---7-4---7-4--6-7h-7--O|--6-7h-7-7-O|-6-7h-7-7-7-|0---------------| 
B| ----------------------------- |----------- |------------|------2---2--5--| 

C|----|
G|----|
D|----|
A|----|
E|----| 
B|-1--| 

C|---------8--------------------8-------------------------------------------|
G|-------8---x-8b9-b8---------8----8\---------------------------------------|
D|6---/9--------------9-6---9-----------------------------------------------|
A|-----------------------------------2----------4---------------------------|
E|------------------------------------------------------4---4-------7--4----| 
B|--------------------------------------2-----------5------------5----------| 

The bend on the 4 is slight, and pull off onto the 3|”Ill hide from subtleties while…”
C|------------------------------------------|-------------------------------|
G|------------------------------------------|-------------------------------|
D|------------------------------------------|-------------------------------|
A|-----------------------------------4b-3p--|-------------------------------|
E|4---4------7------------------------------|4--4--4----7-4--4--4-----9\----| 
B|---------------8---8---5---5---2----------|---------5------------0------2-| 

C|-----------------------------8------------------------------------|
G|---------------------------8---8-------------------6\-------------|
D|------------------------/9-------5-5\-----------------------------|
A|-----------------------------------------------7-6-----4----------|
E|9\---7-4--4--4-----4-------------------------7--------------------| 
B|---5------------0----------------------5--5---------------x-1-1-4-| 

       “Wake me with a bottle ‘cross the head…”
C|-------------------------------------------------|
G|-------------------------------------------------|
D|-------------------------------------------------|
A|---------------------------------3---4-----------|
E|4--4-4-4------3--4---4--6--7--4------------------| 
B|----------5-5--------------------------2-5-5-6-6-| 

 “Safe…”
C|------------------------------------------------------------------------|
G|-----------6-8h--------------------------------8-----6------6-----------|
D|6--6-9h-6-------6--6-9h----7--6--6-9h-6------6----6----9-9\-----------6-|
A|------------------------7----------------6-9-------------------4--7-0p--|
E|------------------------------------------------------------------------| 
B|------------------------------------------------------------------------| 

                     “…luck…”
C|-------------------------------------------------------------------------|
G|6/8-6/9-8p---------------------------------------------------------------|
D|----------9--------------------------------------------------------------|
A|-------------------------------------------------------------------------|
E|-------------0-0000-4---4---4------7--4---4---4---/7---3---3-------------| 
B|--------------------------------5--------------------0---------5---5-5-5-| 

C|----------------------|
G|----------------------|
D|----------------------|
A|----------4-4-4-4-4-4-|
E|----------------------| 
B|2--2-2--2-------------| 

             “Wake me with a bottle ‘cross the head…”
C|--------------------------------------------------------------------------|
G|--------------------------------------------------------------------------|
D|--------------------------------------------------------------------------|
A|------------------------------------------3---4---------------------2--2--|
E|4--4-4-4------3-5-4---4--4--4-7-7-7-4-4-4--------------------4--x4--------| 
B|----------5-5-----------------------------------2-5-5-6-6-5---------------| 
                
C|----------------------------------------------|
G|----------------------------------------------|
D|-----------------66---------------------------|
A|-------------------6----3--3--4---------------|
E|3--3--4--4--4---4---444-----------------------| 
B|-------------------------------2--5--5--6--6--| 

syncopated rhythm in 10/4 phrasing
C| 13--13--13--16--15--11-- |
G|o14--14--14--18--16--13--o|
D| 16--16--16--19--18--14-- |
A|o------------------------o|
E| ------------------------ | 
B| ------------------------ | 

3:56                                         X3       X7
C| --15----15----15----15----15-------13----- | --15- |
G|o----16----16----16----16----16-------14---o|o-----o|
D| 18----18----18----18----18----18\16----16/ | 18--- |
A| ------------------------------------------ | ----- |
E|o------------------------------------------o|o-----o| 
B|------------------------------------------- | ----- | 

             1,2,3,4____
4:26                    |
C| -------------------- |
G| -------------------- |
D|o--------------------o|
A| -------------------- |
E|o2--2-2--2--5--4--0--o| 
B| -------------------- | 

                                 1________ 2_______
                                          |
C| --------------------------------------- |--------------------------|
G| --------------------------------------- |--------8-----6-----------|
D|o---------------------------------------o|--6-------6-----6---4-----|
A| --6-----6-----6-----6-----6-------4---- |4---7-4-----4-----4---7-4-|
E|o4---7-4---7-4---7-4---7-4---7-4-----5--o|--------------------------| 
B| --------------------------------7-----7 |--------------------------| 

C|----------------------------------------------|
G|--------8-------------8-----6-----------------|
D|6-----------7---6-------6-----6---------------|
A|--7-------9---4---7-4-----4-----4-------------|
E|----9-8---------------------------------------| 
B|----------------------------------2--5--6--5--| 

C|------------------------------------------------------------------------|
G|------------------------------------------------------------------------|
D|--------------------------------------------------9\--------------------|
A|--------------------------------------3---------------------------------|
E|-----4--4--74--4--74--4--4----------------------------------3--3--4--4--| 
B|5-5-----------------------2--2-25--5-----1--2--2------5--5--------------| 

C|-----------------------------------------------------------------------|
G|-------------------------------------------------------4---------------|
D|-----------------------------------------------------------------------|
A|3--3--4------------------------------2--2--22-2-------4-424------------|
E|------------------------44--4--44--4-----------------------0--0--000111| 
B|---------2--5--5--6--6---------------------------2--2------------------| 

C|-------------------------------------------|
G|-------------------------------------------|
D|-------------------------------------------|
A|--------------------------2----------------|
E|4--4--4-7---------7\-----------------------| 
B|---------70--0-00----2--2--252525-5-5-8-9\-| 

5.31
C| 15---- |
G|o--16--o|
D| ----18 |
A|o------o| X21
E| ------ | 
B| ------ | 

                      X8
C|18----16----| 15---- |------|
G|--16----16--|o--16--o|1816--|
D|----18----18| ----18 |----18|
A|------------|o------o|------|
E|------------| ------ |------|
B|------------| ------ |------|

5.51                           X3
C| ---------------------------- |--------------------------------|
G|o----------------------------o|--------------------------------|
D| ---------------------------- |--------------------------------|
A|o--.-----------------------4-o|--.-----------------------2---67|
E| 4444--4--4--4-4--4--44--47-7 |4444--4--4--4-4--4--44--42-447--| 
B| ---------------------------- |--------------------------------| 


                        1_________ 2___________ 3_________ 4_________          
                                  |           |           |          |
C| ------------------------------ |---------- |---------- |--------- |
G| ------------------------------ |---------- |---------- |--------- |
D|O------------------------------O|----------O|----------O|---------O|
A| ------------------------------ |---------- |---------- |-46h66\-- |
E|O0--0--4---7-4---7-4--67h777---O|--6-7h7---O|-6-7h7-7--O|---------O| 
B| ------------------------------ |---------- |---------- |--------- | 

                       1__________ 2___________ 3________ 4_________          
Begins fading out                  |           |          |          |
C| ------------------------------- |---------- |--------- |--------- |
G| ------------------------------- |---------- |--------- |--------- |
D|O-------------------------------O|----------O|---------O|---------O|
A| ------------------------------- |---------- |--------- |--------- |
E|O0--0--4---7-4---7-4--6-7h7-7---O|4-6-7h7---O|-6-7h7---O|-67h777--O| 
B| ------------------------------- |---------- |--------- |--------- | 

                       1________ 2___________ 3_______ 4_________          
6.54                             |           |         |          |
C| ----------------------------- |---------- |-------- |--------- |
G| ----------------------------- |---------- |-------- |--------- |
D|O-----------------------------O|----------O|-46h6\--O|---4-----O|
A| ----------------------------- |---------- |-------- |-7---7-6- |
E|O0--0--4---7-4---7-4--67h777--O|-4-2------O|--------O|---------O| 
B| ----------------------------- |-----5-4-- |-------- |--------- | 

C| ---------------------------|
G| ----------------------4----|
D|O-----------------------6---|
A| ------------------------6--|
E|O0--0--4---7-4---7-4--4-----| Finishes fading
B| ---------------------------| 
            
Tabs too difficult? Try these video lessons and learn fast.


comments powered by Disqus
↑ Back to top | Tablatures and chords are parodies/interpretations of the original songs. You may use it for private study, scholarship, research or language learning purposes only