>
 >
The Medicine Wears Off

The Medicine Wears Off Bass Tabs

Karnivool - The Medicine Wears Off chords, tabs, tablatures, lyrics

Guitar lessons | Add/correct | Request | Top 50 tabs Artists:  A B C D E F G H I J K L M N O P Q R S T U V W X Y Z 0-9

The Medicine Wears Off Bass Tabs – Karnivool

CD, Sheet music, Poster

Do you like The Medicine Wears Off? Share with your friends now
Bass Tabs
Karnivool - The Medicine Wears Off

Jon uses a six string in this song (as usual), and although he is tuned 
B,F#,B,E,G,C it can be played in standard tuning this way...


C|11--11--11--11--11--11--11--9---11--11--11--11--9--9--6--6--6--|
G|13--13--13--13--12--12--12--12--12--12--12--12--10-10-7--7--7--|
D|--------------------------------10--10--10--10-----------------|
A|11--11--11--11--10--10--10--10------------------8--8--5--5--5--|
E|---------------------------------------------------------------| 
B|---------------------------------------------------------------| 

C|6--5--5--5--5--11--11--11--13--7--7--4--4--6--6--6--6--5--5--|
G|7--6--6--6--6--12--12--12--14--9--9--5--5--7--7--7--7--6--6--|
D|-------------------------------------------------------------|
A|5--4--4--4--4--10--10--10--12--7--7--3--3--5--5--5--5--4--4--|
E|-------------------------------------------------------------| 
B|-------------------------------------------------------------| 

C|11--11--11--13--7--7--9--9---|
G|12--12--12--14--9--9--10-10--|
D|-----------------------------|
A|10--10--10--12--7--7--8--8---|
E|-----------------------------| 
B|-----------------------------| 

C| 11--11--11--11--11--11--11--9---11--11--11--11--9--9--- |
G| 13--13--13--13--12--12--12--12--12--12--12--12--10-10-- |
D|O--------------------------------10--10--10--10---------O|
A| 11--11--11--11--10--10--10--10------------------8--8--- |
E|O-------------------------------------------------------O| 
B| ------------------------------------------------------- | 

C|6--6--6--6--5--5--11--11--11--13--7--7--4----4-4-4-|
G|7--7--7--7--6--6--12--12--12--14--9--9--5----5-5-5-|
D|---------------------------------------------------|
A|5--5--5--5--4--4--10--10--10--12--7--7--3----3-3-3-|
E|---------------------------------------------------| 
B|---------------------------------------------------| 

            “See what I get, when the medicine wears off…”
C|-----------------------------------------------------------------|
G|-----------------------------------------------------------------|
D|-----------------------------------------------------------------|
A|-----------------------------------------------------------------|
E|----------------------------------3--3--3--5--0--0-0-------------| 
B|0--0-0--0--0-0-0-2--2-2--2--2-2-2---------------------1--1-1-1---| 

C|--------------------------------------------------------------|
G|--------------------------------------------------------------|
D|--------------------------------------------------------------|
A|--------------------------------------------------------------|
E|----------------------------------3--3--3--5--0-0-0-0---------| 
B|0--0-0--0--0-0-0-2--2-2--2--2-2-2---------------------1-1-1-1-| 





Comments


Popular Karnivool tabs & chords
All I Know 1 Bass Tabs
The Caudal Lure Bass Tabs
Umbra Bass Tabs
Cote Chords
Float Tabs
Roquefort 1 Tabs
Roquefort Intro Tabs
Sewn And Silent 2 Tabs
Shutterspeed Tabs
Sleeping Satellite Tabs


Song lyrics



↑ Back to top | Tablatures and chords are parodies/interpretations of the original songs. You may use it for private study, scholarship, research or language learning purposes only
© 2014 AZChords.com Contact us | Privacy policy | DMCA | Add/correct tabs | Request tabs | Top 50 tabs