» » »

Karnivool, Sleeping Satellite Tabs (ver.2)

Artists:  A B C D E F G H I J K L M N O P Q R S T U V W X Y Z # 

Sleeping Satellite Tabs (ver.2)

Karnivool Tabs
 Rating:
4/5 (4 votes)
Sleeping Satellite lessons Tabs too difficult? Try these video lessons and learn fast
                ------------------------------------------------------- 
-------------------------------------------------------

Tuning: B F# B G B e

acoustic intro
e |--------------------------------------------------------|
B |----------------------------------------2-222-222-222---|
G |--11-111111-111111-111111-4-444-444-444-x-xxx-xxx-xxx---|
B |--7--7-7-7--7-7-7--7-7-7--0-000-000-000-2-222-222-222---|
F#|--7--7-7-7--7-7-7--7-7-7--0-000-000-000-2-222-222-222---|
B |--7--7-7-7--7-7-7--7-7-7--0-000-000-000-2-222-222-222---|

"don't blame..."
e |------------------------|
B |------------------------|
G |------------------------|
B |---333--555-------------|
F#|---333--555-------------|
B |---333--555-------------|


electric guitars - chorus
e |---------------------------------------|
B |---------------------2-2-2~--2-2-2~----|
G |--11-11-11~--4-4-4~--x-x-x---x-x-x-----|
B |--7--7--7-~--0-0-0~--2-2-2~--2-2-2~----|
F#|--7--7--7-~--0-0-0~--2-2-2~--2-2-2~----|
B |--7--7--7-~--0-0-0~--2-2-2~--2-2-2~----|

verse - palm muted
e |------------------------------------------|
B |------------------------------------------|
G |---99-11-11-99----------------------------|
B |------------------------------------------|
F#|------------------------------------------|
B |------------------------------------------|
      .. .  .  ..

before chorus
e |------------------------------------------|
B |------------------------------------------|
G |------------------------------------------|
B |--222--555--------------------------------|
F#|--222--555--------------------------------|
B |--222--555--------------------------------|


chorus
e |---------------------------------------|
B |---------------------2-2-2~--2-2-2~----|
G |--11-11-11~--4-4-4~--x-x-x---x-x-x-----|
B |--7--7--7-~--0-0-0~--2-2-2~--2-2-2~----|
F#|--7--7--7-~--0-0-0~--2-2-2~--2-2-2~----|
B |--7--7--7-~--0-0-0~--2-2-2~--2-2-2~----|

"don't blame this sleeping satellite..."
e |-----------------------------------------|
B |-----------------------------------------|
G |-----------------------------------------|
B |---333--555------------------------------|
F#|---333--555------------------------------|
B |---333--555------------------------------|


will add the rest later

| .  palm mute
| /  slide up
| \  slide down
| h  hammer-on
| p  pull-off
| ~  vibrato
| +  harmonic
| x  Mute note
==========================================================
            
Submit corrections

comments powered by Disqus
↑ Back to top | Karnivool Tabs for Sleeping Satellite. Lyrics for acoustic guitar and electric guitar. Tablatures and chords are parodies/interpretations of the original songs. You may use it for private study, scholarship, research or language learning purposes only