» » »

Karnivool, Sewn And Silent Tabs (ver.3)

Artists:  A B C D E F G H I J K L M N O P Q R S T U V W X Y Z # 

Sewn And Silent Tabs (ver.3)

Karnivool Tabs
Rating:
4/5 (2 votes)
Sewn And Silent lessons Tabs too difficult? Try these video lessons and learn fast
                -------------------------------------------------------------------------------
                             Sewn and Silent - Karnivool
-------------------------------------------------------------------------------

Tuning: C# F# B G G# C#
Intro / Verse

C#|---------------------------------------------------------------------------|
G#|-----------5------------------5--------------------5-----------------------|
G |-------5--------5--------5---------5-----------5---------5-----------------|
B |-----6---6-------------6---6-----------------6---6-------------------------|
F#|---------------------------------------------------------------------------|
C#|---4----------------0-4------------------0-4-------------------------------|

C#|------------------------------0-------------------0-----------------0-------|
G#|------------0-----------------5-------------------5-----------------5-------|
G |--------3-------3---------5--------5----------5------5---------5--------5---|
B |------4---4-------------6---6---------------6---6------------6---6----------|
F#|----------------------------------------------------------------------------|
C#|--0-2-------------0-4-------------------0-4--------------0-4----------------|

C#|------------0---------------------------------------------------------------|
G#|------------0---------------------------------------------------------------|
G |--------3-------3-----------------------------------------------------------|
B |------4---4-----------------------------------------------------------------|
F#|----------------------------------------------------------------------------|
C#|--0-2-----------------------------------------------------------------------|

Riff over intro

C#|---------------------------------------------------------------------------|
G#|---------------------------------------------------------------------------|
G |---------------------------------------------------------------------------|
B |-----5--8---8h10---5--8---8h10---5--8---8h10---1h3--1h3--1h5--------------|
F#|---------------------------------------------------------------------------|
C#|---------------------------------------------------------------------------|

C#|---------------------------------------------------------------------------|
G#|---------------------------------------------------------------------------|
G |---------------------------------------------------------------------------|
B |-----5--8---8h10---5--8---8h10---5--8---8h10---1h3--1h3--1-----------------|
F#|------------------------------------------------------------6--------------|
C#|---------------------------------------------------------------------------|

Verse

Then strum last notes of verse into chorus

Chorus

C#|---------------------------------------------------------------------------|
G#|---------------------------------------------------------------------------|
G |-----6--6-6-6---6-6--6-6--6-6-6-6--------3--3-3-3---3-3--3-3--3-3-3-3------|
B |-----6--6-6-6---6-6--6-6--6-6-6-6--------4--4-4-4---4-4--4-4--4-4-4-4------|
F#|-----4--4-4-4---4-4--4-4--4-4-4-4--------2--2-2-2---2-2--2-2--2-2-2-2------|
C#|-----x--x-x-x---x-x--x-x--x-x-x-x--------x--x-x-x---x-x--x-x--x-x-x-x------|

Alternate to this at the end of chorus

C#|---------------------------------------------------------------------------|
G#|-----------------------------------------2--2-2-2---2-2--2-2--2-2-2-2------|
G |-----6--6-6-6---6-6--6-6--6-6-6-6--------3--3-3-3---3-3--3-3--3-3-3-3------|
B |-----6--6-6-6---6-6--6-6--6-6-6-6--------4--4-4-4---4-4--4-4--4-4-4-4------|
F#|-----4--4-4-4---4-4--4-4--4-4-4-4--------0--0-0-0---0-0--0-0--0-0-0-0------|
C#|-----x--x-x-x---x-x--x-x--x-x-x-x--------x--x-x-x---x-x--x-x--x-x-x-x------|

Extra riff:
Then this part. Its just a guide, you can play this part how you like.

C#|------------------------0-----0-----0-----------------------------------------|
G#|-----------5-------------------------------------5---------------------5------|
G |-------5--------5----------5-----5----------5----------5----------5---------5-|
B |-----6---6-----------------6-----6--------6---6-----------------6---6---------|
F#|---4----------------------------------------------------------4---------------|
C#|------------------------------------------------------------------------------|

Then verse again.

Then chorus.

Then play a bridge made up of chords from the chorus, just listen to the timing and
throw in some:

C#|----------------------------------------------------------------------------|
G#|----------------------------------------------------------------------------|
G |---5h6--5h6--5h6---5h6------------------------------------------------------|
B |---6----6----6-----6--------------------------------------------------------|
F#|---4----4----4-----4--------------------------------------------------------|
C#|----------------------------------------------------------------------------|

Finish bridge with 

C#|----------------------------------------------------------------------------|
G#|----10--10-10-10--10-10--10-10---10-10-10-10--------------------------------|
G |----11--11-11-11--11-11--11-11---11-11-11-11---------8----------------------|
B |----11--11-11-11--11-11--11-11---11-11-11-11---------9----------------------|
F#|----9---9--9--9---9--9---9--9----9--9--9--9----------9----------------------|
C#|-----------------------------------------------------7----------------------|

Then much around with the extra riff to finish.

| /  slide up
| \  slide down
| h  hammer-on
| p  pull-off
| ~  vibrato
| +  harmonic
| x  Mute note
===============================================================================
            
Submit corrections

comments powered by Disqus
↑ Back to top | Karnivool Tabs for Sewn And Silent. Lyrics for acoustic guitar and electric guitar. Tablatures and chords are parodies/interpretations of the original songs. You may use it for private study, scholarship, research or language learning purposes only