>
 >
Sewn And Silent

Sewn And Silent Guitar Tabs

Karnivool - Sewn And Silent chords, tabs, tablatures, lyrics

Guitar lessons | Add/correct | Request | Top 50 tabs Artists:  A B C D E F G H I J K L M N O P Q R S T U V W X Y Z 0-9

Sewn And Silent Guitar Tabs – Karnivool

CD, Sheet music, Poster

Do you like Sewn And Silent? Share with your friends now
TabsTabs v2Tabs v3
------------------------------------------------------ 
              Sewn & Silent - Karnivool
------------------------------------------------------

Tuning: C# G# B E G# C#   

Note: The open note of the 3rd string is Gb... i'm not sure if 
it's also called E.

Intro/main riff
C#|------------0----------------|
G#|-------------------0---------|
E |-------6---------6-----------|x3
B |-----6---6-------------------|
G#|-----------------------------|
C#|--4-----------0--------------|

C#|-----------0-----------------|
G#|--------------4--------------|
E |------4------4---------------|x1
B |----4---4--------------------|
G#|-----------------------------|
C#|--2--------------------------|

guitar 2 harmonics
C#|--7*-------7*----|
G#|--------7*-------|
E |-----7*----------|
B |-----------------|
G#|-----------------|
C#|-----------------|

C#|--7*-------7*---------|
G#|--------7*------7*----|
E |-----7*-------7*------|
B |----------------------|
G#|----------------------|
C#|----------------------|

pre-chorus
C#|-----------------------|
G#|-----------------------|
E |-----------------------|
B |-----------------------|
G#|--2-22222222/555555----|
C#|--2-22222222/555555----|
       ........ ......
Chorus
C#|------0-0-0-0-0-0--0-0-0--000-0000---|
G#|------0-0-0-0-0-0--0-0-0--000-0000---|
E |------0-0-0-0-0-0--0-0-0--777-7777---|x2
B |--1313131313131313-111111-777-7777---|
G#|--9-9-9-9-9-9-9-9--9-9-9--555-5555---|
C#|--9-9-9-9-9-9-9-9--9-9-9--555-5555---|

2nd time end with this chord
C#|-------|
G#|-------|
E |--9----|
B |--9----|
G#|--7----|
C#|--7----|

2nd verse
1:13
C#|--------------------0---------------0------|
G#|-------------------------------------------|
E |-----6------------6---------------6--------|
B |---6----------------------------6----------|
G#|-------0~-------------0~--------------0~---|
C#|-------0~-------4-----0~--------------0~---|
    played x1
C#|---------------|--------------------0-----|
G#|---------------|-----0---0---0---0--------|
E |--------6------|---6---6---6---6----------|x4
B |------6--------|--------------------------|
G#|----------0~---|--------------------0~----|
C#|---4------0~---|--------------------0~----|


pre-chorus   "in this happiness..."
C#|-----------------------|
G#|-----------------------|
E |-----------------------|
B |-----------------------|
G#|--2~-2/555555----|
C#|--2~-2/555555----|
          ......

Chorus
C#|------0-0-0-0-0-0--0-0-0--000-0000-----|
G#|------0-0-0-0-0-0--0-0-0--000-0000-----|
E |------0-0-0-0-0-0--0-0-0--777-7777-----|
B |--1313131313131313-111111-777-7777-----|
G#|--9-9-9-9-9-9-9-9--9-9-9--555-5555-----|
C#|--9-9-9-9-9-9-9-9--9-9-9--555-5555-----|
                                          |x2
C#|------0-0-0-0-0-0--0-0-0--000-0000-----|
G#|------0-0-0-0-0-0--0-0-0--000-0000-----|
E |------0-0-0-0-0-0--0-0-0--777-7777/99--|
B |--1313131313131313-111111-777-7777/99--|
G#|--9-9-9-9-9-9-9-9--9-9-9--555-5555/77--|
C#|--9-9-9-9-9-9-9-9--9-9-9--555-5555/77--|

"and hide your face..."
C#|------------------------|
G#|------------------------|
E |------------------------|
B |------------------------|
G#|--4444-2-2/4-5--777-8---|
C#|--4444-2-2/4-5--777-8---|

guitar 1   solo play 3 times
C#|-------------------------------------------|
G#|-------------------------------------------|
E |---6-4~--7p6666\2--6~-6h7p6-6h7p6/11\9\7---|
B |-------------------------------------------|
G#|-------------------------------------------|
C#|-------------------------------------------|
guitar 2   play these chords over solo
C#|--0--0--0-----------------|
G#|--0--0--0-----------------|
E |--7--9--0-----------------|x3
B |--7--9--9-----------------|
G#|--5--7--8-----------------|
C#|--5--7--8-----------------|
  "you take me away..."
C#|---00000000--------|
G#|---00000000--------|
E |---77777777--------|
B |---77777777--------|
G#|---55555555-2~-----|
C#|---55555555-2~-----|

outro
C#|--------------------------0-----------------------0---------------|
G#|--------------------------------------0---------------------------|
E |--------------------6---6---------------------6----------6--------|
B |----------------------6-------------6---6-------6----------6------|
G#|------------------------------------------------------------------|
C#|--4~--0~--4~--0~-------------4~-0~---------0-----------4-----0~---|

The End

| .  palm mute
| /  slide up
| \  slide down
| h  hammer-on
| p  pull-off
| ~  vibrato
| +  harmonic
| x  Mute note
================================================================





Comments


Popular Karnivool tabs & chords
All I Know Bass Tabs
Umbra Bass Tabs
Cote Chords
C.O.T.E 1 Tabs
Fear Of The Sky Tabs
Float Tabs
Mauseum Tabs
Roquefort 1 Tabs
Scarabs Tabs
Sleeping Satellite 2 Tabs


Song lyrics



↑ Back to top | Tablatures and chords are parodies/interpretations of the original songs. You may use it for private study, scholarship, research or language learning purposes only
© 2014 AZChords.com Contact us | Privacy policy | DMCA | Add/correct tabs | Request tabs | Top 50 tabs