>
 >
Set Fire To The Hive

Set Fire To The Hive Guitar Tabs

Karnivool - Set Fire To The Hive chords, tabs, tablatures, lyrics

Guitar lessons | Add/correct | Request | Top 50 tabs Artists:  A B C D E F G H I J K L M N O P Q R S T U V W X Y Z 0-9

Set Fire To The Hive Guitar Tabs – Karnivool

CD, Sheet music, Poster

Do you like Set Fire To The Hive? Share with your friends now
Tabs
This is my first tab ever, Set Fire to the Hive by Karnivool, and this is how I play it.
Personally I tabbed this out in guitar pro first to hear it play through and see if its
correct (Maybe I will upload that in future?). It's in their famous drop-B/E standard 
combo, you just drop the bottom 3 strings to drop-b. The trill part/bridge interlude with
the hammer-ons and pull-offs got messed up in translation, beacuse Guitar Pro feels like 
giving me crap. Oh well... Here it is!

                       Karnivool - Set Fire to the Hive
                         From the album - Sound Awake
                      Tuning (High to Low: E,B,G,B,F#,B)



                       Karnivool - Set Fire to the Hive
                         From the album - Sound Awake



        NH   NH   NH   NH         NH            NH   NH   NH   NH      NH
        E    E    E    E  E  E    E  E     E    E    E    E    E  E    E  E
E ||------------------------------------|--------------------------------------|
B ||------------------------------------|--------------------------------------|
G ||--<7>--<7>--<7>-<7>--7-----<7>--7--|-----<7>--<7>--<7>--<7>--7--<7>--7-----|
B ||------------------------------------|--------------------------------------|
F#||------------------------------------|--------------------------------------|
B ||------------------------------------|--------------------------------------|


  S S S S S S S S S S S S S S S S    S S S S S S S S S S S S S S S S
----------------------------------|----------------------------------|
----------------------------------|----------------------------------|
----------------------------------|----------------------------------|
----------------------------------|----------------------------------|
----------------------------------|----------------------------------|
--5-5-5-5-5-5-5-3-5-5-5-5-5-5-5-5-|--5-5-5-5-5-5-5-5-5-5-5-5-5-5-5-5-|


  S S S S S S S S S S S S S S S S    S S S S S S S S S S S S S S S S
----------------------------------|----------------------------------|
----------------------------------|----------------------------------|
----------------------------------|----------------------------------|
----------------------------------|----------------------------------|
----------------------------------|----------------------------------|
--5-5-5-5-5-5-5-5-5-5-5-5-5-5-5-5-|--5-5-5-5-5-5-5-5-5-5-5-5-5-5-5-3-|


  ^
  Q    S E  S S S S S S S S S    S S S S S S S S S S S S S S E
------------------------------|---------------------------------|
------------------------------|---------------------------------|
------------------------------|---------------------------------|
------------------------------|---------------------------------|
------------------------------|--------------8-----6------------|
--8----3-5--3-5-5-5-5-5-5-5-5-|--5-3-3-3-3-3---5-5---5-5-8-5----|


  ^
  Q    S S S S S S S S S S S S    S S S S S S S S S S S S S S E
-------------------------------|---------------------------------|-------|
-------------------------------|---------------------------------|-------|
-------------------------------|---------------------------------|-------|
-------------------------------|---------------------------------|-------|
-------------------------------|---------------------------------|-------|
--5----5-5-5-3-5-5-5-5-5-5-5-5-|--5-5-5-5-5-5-5-5-5-5-5-5-5-5----|-------|


-------|-------|-------|-------|-------|-------|-------|
-------|-------|-------|-------|-------|-------|-------|
-------|-------|-------|-------|-------|-------|-------|
-------|-------|-------|-------|-------|-------|-------|
-------|-------|-------|-------|-------|-------|-------|
-------|-------|-------|-------|-------|-------|-------|


  Q    S S S S S S S S S S S S    S S S S S S S S S S S S S S S S
-------------------------------|----------------------------------|
-------------------------------|----------------------------------|
-------------------------------|----------------------------------|
-------------------------------|----------------------------------|
-------------------------------|----------------6-8-8-8-8---------|
--5----5-5-5-5-8-5-5-5-5-5-5-8-|--5-5-8-5-5-5-5-----------5-5-5-5-|


  S S S S S S S S S S S S S S S S    S S S S S S S S S S S S S S S S
----------------------------------|----------------------------------|
----------------------------------|----------------------------------|
----------------------------------|--3-3-3---------------------------|
----------------------------------|----------------------------------|
--6-6-6-6-6-6-6-6-6-6-6-6-6-6-6-6-|--------6-6-6-6-6-6-6-6-6-4-4-6-6-|
----------------------------------|----------------------------------|


  Q    S S S S S S S S S S S S    S S S S S S S S S S S S S S S S
-------------------------------|----------------------------------|
-------------------------------|----------------------------------|
-------------------------------|----------------------------------|
-------------------------------|----------------------------------|
-------------------------------|--------------------------5-5-5-5-|
--5----5-5-5-5-8-5-5-5-5-5-5-8-|--5-5-8-5-5-5-5-5-5-5-5-5---------|


                                           |----3----|
  S S S S S S S S S S S S S S S S    S S S Q    Q    Q    S S S E
----------------------------------|--------------------------------|
----------------------------------|--------------------------------|
----------------------------------|--------------------------------|
----------------------------------|--------------------------------|
--4-4-4-4-4-4-4-4-4-4-4-4-4-4-----|--6-6-6-------------------------|
------------------------------5-5-|--------3----3----3----3-3------|


  Q    S  S  S S   S  S S  S  S S   S  S S  S  S S   S  S S  S  S S   S  S
----------------------------------------------------------------------------|
----------------------------------------------------------------------------|
----------------------------------------------------------------------------|
----------------------------------------------------------------------------|
--5----8h-9p-8-9h-10p-9-8h-9p-8-9h-10p-9-8h-9p-8-9h-10p-9-8h-9p-8-9h-10p-9h-|
--5-------------------------------------------------------------------------|


   S S S S S  S  S S   S  S S  S  S S   S  S  S   S   S S   S  S S  S  S S   S
--------------------------------------------------------------------------------|
--------------------------------------------------------------------------------|
--------------------------------------------------------------------------------|
--------------------------------------------------------------------------------|
--10-5-----8h-9p-8-9h-10p-9-8h-9p-8-9h-10p-9-10h-11p-10-9h-10p-9-8h-9p-8-9h-10p-|
-----5--------------------------------------------------------------------------|


  Q    S  S  S S  S  S S  S  S  S Q     S   S   S  S   S   S  S   S   S S  S  S
--------------------------------------------------------------------------------|
--------------------------------------------------------------------------------|
--------------------------------------------------------------------------------|
--------------------------------------------------------------------------------|
--5----7h-8p-7-8h-9p-8-7h-8p-7h-8-3----13h-14p-13-12h-13p-12-13h-14p-13-8h-9p-8-|
--5-------------------------------3---------------------------------------------|


  Q    S  S  S S   S  S S  S  S S   S  S  E.   E.   E.   E.
-------------------------------------------------------------|-------|-------|
-------------------------------------------------------------|-------|-------|
-------------------------------------------------------------|-------|-------|
-----------------------------------------17---14---16---13---|-------|-------|
--5----8h-9p-8-9h-10p-9-8h-9p-8-9h-10p-9-17---14---16---13---|-------|-------|
--5--------------------------------------17---14---16---13---|-------|-------|


                  S S S S S S S S S S E  Q
-------|-------|------------------------------|
-------|-------|------------------------------|
-------|-------|------------------------------|
-------|-------|------------------------------|
-------|-------|------------------------------|
-------|-------|--5-5-5-5-5-5-5-5-5-5---------|


  E  S S S S S S S S S S S S S S    S S S S S S S S S S E  Q
---------------------------------|------------------------------|
---------------------------------|------------------------------|
---------------------------------|------------------------------|
---------------------------------|------------------------------|
-----------------8-8-8-8---------|--4-4-4-4-4-4-4-4-4-4---------|
-----8-L-5-5-5-3---------5-5-5-5-|------------------------------|


  S S E  E  E  S S E  E  S S    S S S S S S S S S S E  Q
-----------------------------|------------------------------|
-----------------------------|------------------------------|
-----------------------------|------------------------------|
-----------------------------|------------------------------|
----4-4--4--6------------4-L-|------------------------------|
-----------------3-5--5------|--5-5-5-5-5-5-5-5-5-5---------|


  Q    S S E  S E  S E  E     E  E  E  E  E  E  Q       E  E.  E.  E  E  E  E
---------------------------|-------------------------|-------------------------|
---------------------------|-------------------------|-------------------------|
---------------------------|-------------------------|-------------------------|
---------------------------|-------------------------|-------------------------|
---------------------------|-------------------------|-------------------------|
---------3-5--3-5--3-5--5--|--5--1--1--1--1----------|-----1---1---1--3--1--3--|


  S S S S S S S S S S E  Q       E  S S S S S S S S S S S S S S
------------------------------|---------------------------------|
------------------------------|---------------------------------|
------------------------------|---------------------------------|
------------------------------|---------------------------------|
------------------------------|-----------------8-8-------------|
--5-5-5-5-5-5-5-5-5-5---------|-----8-8-5-5-5-3-----1-1-3-3-3-3-|


  S S S S S S S S S S E  Q       E  S S S S E  S S S S S S S S
------------------------------|--------------------------------|
------------------------------|--------------------------------|
------------------------------|--------------------------------|
------------------------------|--------------------------------|
--4-4-4-4-4-4-4-4-4-4---------|-----4-4-4-4--------------------|
------------------------------|-------------1--3-3-3-3-3-3-3-3-|


  S S S S S S S S S S E  Q       E  S S S S S S H
------------------------------|-----------------6--------|
------------------------------|-----------------5--------|
------------------------------|--------------------------|
------------------------------|--------------------------|
------------------------------|--------------------------|
--8-5-5-5-5-5-5-5-5-5---------|-----5-5-5-5-5-5----------|


  S S S S S S S S S S E  Q       E  H.           E     Q.     Q.     Q
------------------------------|-----5---------------|---------------------|
------------------------------|-----5---------------|---------------------|
------------------------------|---------------------|---------------------|
------------------------------|---------------------|--1------1------1----|
--4-4-4-4-4-4-4-4-4-4---------|---------------------|--1------1------1----|
------------------------------|---------------------|--1------1------1----|


  E  Q.     Q    Q       Q.     Q.     Q       E  Q.     Q    Q
----------------------|---------------------|----------------------|
----------------------|---------------------|----------------------|
----------------------|---------------------|----------------------|
--L--1------3----3----|--1------1------1----|--L--1------3----3----|
--L--1------3----3----|--1------1------1----|--L--1------3----3----|
--L--1------3----3----|--1------1------1----|--L--1------3----3----|


  Q.     Q.     Q       E  Q.     Q    Q        Q.      Q.      Q
---------------------|----------------------|------------------------|
---------------------|----------------------|------------------------|
---------------------|----------------------|------------------------|
--6------6------6----|--L--6------1----1----|--11------11------11----|
--6------6------6----|--L--6------1----1----|--11------11------11----|
--6------6------6----|--L--6------1----1----|--11------11------11----|


   E   E   E   E  E   E   E   E      E  E  E  E  E  E  E  E
---------------------------------|---------------------------|
---------------------------------|---------------------------|
---------------------------------|---------------------------|
---L--11--11--11-----11--11--11--|--11--5-----5--5--5-----5--|
---L--11--11--11-----11--11--11--|--11--5-----5--5--5-----5--|
---L--11--11--11-----11--11--11--|--11--5-----5--5--5-----5--|


  E  E  E  E  E  E  E  E     E   E   E   E   E   E  E   E
--------------------------|--------------------------------|
--------------------------|--------------------------------|
--------------------------|--------------------------------|
--5--5--5--5-----5--5--5--|-----11--11--11--11--11-----11--|
--5--5--5--5-----5--5--5--|-----11--11--11--11--11-----11--|
--5--5--5--5-----5--5--5--|-----11--11--11--11--11-----11--|


   E   E   E   E  E   E   E   E      E  E  E  E  E  E  E  E
---------------------------------|---------------------------|
---------------------------------|---------------------------|
---------------------------------|---------------------------|
--11--11--11--11-----11--11--11--|--11--5-----5--5--5-----5--|
--11--11--11--11-----11--11--11--|--11--5-----5--5--5-----5--|
--11--11--11--11-----11--11--11--|--11--5-----5--5--5-----5--|


  E  E  E  E  E  E  E  E     E   E   E   E   E   E  E   E
--------------------------|--------------------------------|
--------------------------|--------------------------------|
--------------------------|--------------------------------|
--5--5--5--5-----5--5--5--|-----11--11--11--11--11-----11--|
--5--5--5--5-----5--5--5--|-----11--11--11--11--11-----11--|
--5--5--5--5-----5--5--5--|-----11--11--11--11--11-----11--|


                             ^
   E   E   E   E   E  E  E   E      E  E  E  E  E  E  E  E
--------------------------------|---------------------------|
--------------------------------|---------------------------|
--------------------------------|---------------------------|
--11--11--11--11--11--8--5--11--|---L--5--5--5--5--5-----5--|
--11--11--11--11--11--8--5--11--|---L--5--5--5--5--5-----5--|
--11--11--11--11--11--8--5--11--|---L--5--5--5--5--5-----5--|


  E  E  E  E  E  E  E  E     E   E   E   E   E   E  E   E
--------------------------|--------------------------------|
--------------------------|--------------------------------|
--------------------------|--------------------------------|
--5--5--5--5-----5--5--5--|-----11--11--11--11--11-----11--|
--5--5--5--5-----5--5--5--|-----11--11--11--11--11-----11--|
--5--5--5--5-----5--5--5--|-----11--11--11--11--11-----11--|


   E   E   E   E  E   E   E   E      E  E  E  E  E  E  E  E
---------------------------------|---------------------------|
---------------------------------|---------------------------|
---------------------------------|---------------------------|
--11--11--11--11-----11--11--11--|--11--5-----5--5--5-----5--|
--11--11--11--11-----11--11--11--|--11--5-----5--5--5-----5--|
--11--11--11--11-----11--11--11--|--11--5-----5--5--5-----5--|


  E  E  E  E  E  E  E  E     E   E   E  E   E   E  E   E
--------------------------|-------------------------------|
--------------------------|-------------------------------|
--------------------------|-------------------------------|
--5--5--5--5-----5--5--5--|--8--11--11--8--11--11--8--11--|
--5--5--5--5-----5--5--5--|--8--11--11--8--11--11--8--11--|
--5--5--5--5-----5--5--5--|--8--11--11--8--11--11--8--11--|


                             ^
   E   E   E   E   E  E  E   E      Q    Q    Q    Q    Q    Q    Q
--------------------------------|--------------------------------------|
--------------------------------|--------------------------------------|
--------------------------------|--------------------------------------|
--11--11--11--11--11--8--5--11--|---L----------------------------------|
--11--11--11--11--11--8--5--11--|---L----------------------------------|
--11--11--11--11--11--8--5--11--|---L----------------------------------|


  Q    Q    Q    Q    Q    Q    Q       Q    Q    Q    Q    Q    Q    Q
-------------------------------------|-------------------------------------|
-------------------------------------|-------------------------------------|
-------------------------------------|-------------------------------------|
-------------------------------------|-------------------------------------|
-------------------------------------|-------------------------------------|
-------------------------------------|-------------------------------------|


  Q.     Q    Q    Q    Q    Q    Q       Q    Q    Q    Q    Q    Q    Q
---------------------------------------|-------------------------------------|
---------------------------------------|-------------------------------------|
---------------------------------------|-------------------------------------|
---------------------------------------|-------------------------------------|
---------------------------------------|-------------------------------------|
---------------------------------------|-------------------------------------|


  Q    Q    Q    Q    Q    Q    Q       Q    Q.     E.  E.    E.  E.  E.  E.
-------------------------------------|----------------------------------------|
-------------------------------------|----------------------------------------|
-------------------------------------|------------------2---2g4---2-----------|
-------------------------------------|--------------3-----------------3-------|
-------------------------------------|--5----L----------------------------5---|
-------------------------------------|----------------------------------------|


  Q    Q.     E.  E.  E.  E.  E.  E.     Q    Q.     E.  E.    E.  E.  E.  E.
--------------------------------------|----------------------------------------|
--------------------------------------|----------------------------------------|
------------------2---3---2-----------|------------------2---2g4---2-----------|
--------------3---------------3-------|--------------3-----------------3-------|
--4----L--------------------------4---|--5----L----------------------------5---|
--------------------------------------|----------------------------------------|


  Q    Q.     E.  E.  E.  E.  E.  E.     W                H.
--------------------------------------|--------------------------------|
--------------------------------------|--------------------------------|
------------------2---3---2---3---7---|--------------------------------|
--------------3-----------------------|--------------------------------|
--4----L------------------------------|--5----------------L------------|
--------------------------------------|--5----------------L------------|


  W                H.              W                H.
--------------------------------|--------------------------------|
--------------------------------|--------------------------------|
--------------------------------|--------------------------------|
--------------------------------|--------------------------------|
--5----------------L------------|--4----------------L------------|
--5----------------L------------|--5----------------L------------|


  W                E.  E.  E.  E.     Q    H.           H.
-----------------------------------|---------------------------------|
-----------------------------------|---------------------------------|
-----------------------------------|---------------------------------|
-------------------6---5---7---8---|---------------------------------|
--5----------------4---5---5---6---|--5------------------------------|
--5--------------------5-----------|--5------------------------------|


  Q    H.           H.              Q    E.  E.  E.  Q    E.  E.  E.  E.  E.
---------------------------------|--------------------------------------------|
---------------------------------|--------------------------------------------|
---------------------------------|--------------------------------------------|
---------------------------------|--------------------------------------------|
--5------------------------------|--5----------------3------------------------|
--5------------------------------|--5----------------3------------------------|


  Q    S  S  S S   S  S S  S  S S   S  S  S E.  Q    Q
----------------------------------------------------------|
----------------------------------------------------------|
----------------------------------------------------------|
----------------------------------------------------------|
--5----8h-9p-8-9h-10p-9-8h-9p-8-9h-10p-9-10---------------|
--5-------------------------------------------------------|


  Q.     Q.     Q       E  Q.     Q    Q       Q.     Q.     Q
---------------------|----------------------|---------------------|
---------------------|----------------------|---------------------|
---------------------|----------------------|---------------------|
--1------1------1----|--L--1------3----3----|--1------1------1----|
--1------1------1----|--L--1------3----3----|--1------1------1----|
--1------1------1----|--L--1------3----3----|--1------1------1----|


  E  Q.     Q    Q       Q.     Q.     Q       E  Q.     Q    Q
----------------------|---------------------|----------------------|
----------------------|---------------------|----------------------|
----------------------|---------------------|----------------------|
--L--1------3----3----|--6------6------6----|--L--6------1----1----|
--L--1------3----3----|--6------6------6----|--L--6------1----1----|
--L--1------3----3----|--6------6------6----|--L--6------1----1----|


   Q.      Q.      Q        E   E   E   E  E   E   E   E
------------------------|---------------------------------|
------------------------|---------------------------------|
------------------------|---------------------------------|
--11------11------11----|---L--11--11--11-----11--11--11--|
--11------11------11----|---L--11--11--11-----11--11--11--|
--11------11------11----|---L--11--11--11-----11--11--11--|


   E  E  E  E  E  E  E  E     E  E  E  E  E  E  E  E
---------------------------|--------------------------|
---------------------------|--------------------------|
---------------------------|--------------------------|
--11--5-----5--5--5-----5--|--5--5--5--5-----5--5--5--|
--11--5-----5--5--5-----5--|--5--5--5--5-----5--5--5--|
--11--5-----5--5--5-----5--|--5--5--5--5-----5--5--5--|


  E   E   E   E   E   E  E   E      E   E   E   E  E   E   E   E
--------------------------------|---------------------------------|
--------------------------------|---------------------------------|
--------------------------------|---------------------------------|
-----11--11--11--11--11-----11--|--11--11--11--11-----11--11--11--|
-----11--11--11--11--11-----11--|--11--11--11--11-----11--11--11--|
-----11--11--11--11--11-----11--|--11--11--11--11-----11--11--11--|


   E  E  E  E  E  E  E  E     E  E  E  E  E  E  E  E
---------------------------|--------------------------|
---------------------------|--------------------------|
---------------------------|--------------------------|
--11--5-----5--5--5-----5--|--5--5--5--5-----5--5--5--|
--11--5-----5--5--5-----5--|--5--5--5--5-----5--5--5--|
--11--5-----5--5--5-----5--|--5--5--5--5-----5--5--5--|


                                                              ^
  E   E   E   E   E   E  E   E      E   E   E   E   E  E  E   E
--------------------------------|--------------------------------|
--------------------------------|--------------------------------|
--------------------------------|--------------------------------|
-----11--11--11--11--11-----11--|--11--11--11--11--11--8--5--11--|
-----11--11--11--11--11-----11--|--11--11--11--11--11--8--5--11--|
-----11--11--11--11--11-----11--|--11--11--11--11--11--8--5--11--|


   E  E  E  E  E  E  E  E     E  E  E  E  E  E  E  E
---------------------------|--------------------------|
---------------------------|--------------------------|
---------------------------|--------------------------|
---L--5--5--5--5--5-----5--|--5--5--5--5-----5--5--5--|
---L--5--5--5--5--5-----5--|--5--5--5--5-----5--5--5--|
---L--5--5--5--5--5-----5--|--5--5--5--5-----5--5--5--|


  E   E   E   E   E   E  E   E      E   E   E   E  E   E   E   E
--------------------------------|---------------------------------|
--------------------------------|---------------------------------|
--------------------------------|---------------------------------|
-----11--11--11--11--11-----11--|--11--11--11--11-----11--11--11--|
-----11--11--11--11--11-----11--|--11--11--11--11-----11--11--11--|
-----11--11--11--11--11-----11--|--11--11--11--11-----11--11--11--|


   E  E  E  E  E  E  E  E     E  E  E  E  E  E  E  E
---------------------------|--------------------------|
---------------------------|--------------------------|
---------------------------|--------------------------|
--11--5-----5--5--5-----5--|--5--5--5--5-----5--5--5--|
--11--5-----5--5--5-----5--|--5--5--5--5-----5--5--5--|
--11--5-----5--5--5-----5--|--5--5--5--5-----5--5--5--|


                                                             ^
  E   E   E  E   E   E  E   E      E   E   E   E   E  E  E   E
-------------------------------|--------------------------------|
-------------------------------|--------------------------------|
-------------------------------|--------------------------------|
--8--11--11--8--11--11--8--11--|--11--11--11--11--11--8--5--11--|
--8--11--11--8--11--11--8--11--|--11--11--11--11--11--8--5--11--|
--8--11--11--8--11--11--8--11--|--11--11--11--11--11--8--5--11--|


   E  E  E  E  E  E  E  E     E  E  E  E  E  E  E  E
---------------------------|--------------------------|
---------------------------|--------------------------|
---------------------------|--------------------------|
---L--5--5--5--5--5-----5--|--5--5--5--5-----5--5--5--|
---L--5--5--5--5--5-----5--|--5--5--5--5-----5--5--5--|
---L--5--5--5--5--5-----5--|--5--5--5--5-----5--5--5--|


  E   E   E   E   E   E  E   E      E   E   E   E  E   E   E   E
--------------------------------|---------------------------------|
--------------------------------|---------------------------------|
--------------------------------|---------------------------------|
-----11--11--11--11--11-----11--|--11--11--11--11-----11--11--11--|
-----11--11--11--11--11-----11--|--11--11--11--11-----11--11--11--|
-----11--11--11--11--11-----11--|--11--11--11--11-----11--11--11--|


   E  E  E  E  E  E  E  E     E  E  E  E  E  E  E  E
---------------------------|--------------------------|
---------------------------|--------------------------|
---------------------------|--------------------------|
--11--5-----5--5--5-----5--|--5--5--5--5-----5--5--5--|
--11--5-----5--5--5-----5--|--5--5--5--5-----5--5--5--|
--11--5-----5--5--5-----5--|--5--5--5--5-----5--5--5--|


                                                             ^
  E   E   E  E   E   E  E   E      E   E   E   E   E  E  E   E      E
-------------------------------|--------------------------------|------|
-------------------------------|--------------------------------|------|
-------------------------------|--------------------------------|------|
--8--11--11--8--11--11--8--11--|--11--11--11--11--11--8--5--11--|---L--|
--8--11--11--8--11--11--8--11--|--11--11--11--11--11--8--5--11--|---L--|
--8--11--11--8--11--11--8--11--|--11--11--11--11--11--8--5--11--|---L--|


  S S S S S S S S S S S S S S S S    S S S S S S S S S S S S S S S S
----------------------------------|----------------------------------|
----------------------------------|----------------------------------|
----------------------------------|----------------------------------|
----------------------------------|----------------------------------|
--4-4-4-4-4-4-4-4-4-4-4-4-4-4-4-4-|--4-4-4-4-4-4-4-4-4-4-4-4-4-4-4-4-|
----------------------------------|----------------------------------|


  S S S S S S S S S S S S S S S S    S S S S S S S S S S S S S S S S
----------------------------------|----------------------------------|
----------------------------------|----------------------------------|
----------------------------------|----------------------------------|
----------------------------------|----------------------------------|
--4-4-4-4-4-4-4-4-4-4-4-4-4-4-4-4-|--4-4-4-4-4-4-4-4-4-4-4-4-4-4-4-4-|
----------------------------------|----------------------------------|


  Q    S E  S S S S S S S S S    S S S S S S S S S S S S S S E
------------------------------|---------------------------------|
------------------------------|---------------------------------|
------------------------------|---------------------------------|
------------------------------|---------------------------------|
--8----4-4--4-4-4-4-4-4-4-4-4-|--4-4-4-4-4-4-4-4-4-4-4-4-4-4----|
------------------------------|---------------------------------|


  Q    S S S S S S S S S S S S    S S S S S S S S S S S S S S E
-------------------------------|---------------------------------||
-------------------------------|---------------------------------||
-------------------------------|---------------------------------||
-------------------------------|---------------------------------||
--4----4-4-4-4-4-4-4-4-4-4-4-4-|--4-4-4-4-4-4-4-4-4-4-4-4-4-4----||
-------------------------------|---------------------------------||




Duration Legend
---------------
W - whole
H - half
Q - quarter
E - 8th
S - 16th
T - 32nd
X - 64th
. - note dotted
|-n-|  - n-tuplets


Tablature Legend
----------------
L - tied note
x - dead note
g - grace note
(n) - ghost note
> - accentuded note
NH - natural harmonic
AH - artificial harmonic
TH - tapped harmonic
SH - semi harmonic
PH - pitch harmonic
h - hammer on
p - pull off
b - bend
br - bendRelease
pb - preBend
pbr - preBendRelease
brb - bendReleaseBend
\n/ - tremolo bar dip
\n - tremolo bar dive
-/n - tremolo bar Release up
/n\ - tremolo bar inverted dip
/n - tremolo bar return
-\n - tremolo bar Release down
S - shift slide
s - legato slide
/ -  slide into from below or out of upwards
\ -  slide into from above or out of downwards
~ - vibrato
W - wide vibrato
tr - trill
TP - tremolo picking
T - tapping
S - slap
P - pop
< - fade in
^ - brush up
v - brush down





Comments


Popular Karnivool tabs & chords
Eidolon Bass Tabs
Lifelike Tabs
Sewn And Silent 2 Tabs
Shutterspeed Tabs
Simple Boy Tabs
Sleeping Satellite Tabs
Success Intro Tabs
Themata Intro Tabs
Umbra Tabs
Cote Ukulele


Song lyrics



↑ Back to top | Tablatures and chords are parodies/interpretations of the original songs. You may use it for private study, scholarship, research or language learning purposes only
© 2014 AZChords.com Contact us | Privacy policy | DMCA | Add/correct tabs | Request tabs | Top 50 tabs