» » »

Karnivool, Roquefort Tabs (ver.3)

Artists:  A B C D E F G H I J K L M N O P Q R S T U V W X Y Z # 

Roquefort Tabs (ver.3)

Karnivool Tabs
 Rating:
3.7/5 (6 votes)
Roquefort lessons Tabs too difficult? Try these video lessons and learn fast
1
                                       Roquefort Karnivool
Tuning B-F#-B-G-B-E


Intro
E------------------------------------------------------------------------|
B------------------------------------------------------------------------|
G------------------------------------------------------------------------|
B------------------------------------------------------------------------| X2
F#--------------------------------------5----------5---------------------|
B -2h3p2p0-2-0---2h3p2p0-2-0-2h3p2p0-2----2h3p2p0----2---2h3p2p0---5-0-1-|



Full band kicks in
E----------------------------------------------------------------------------|
B----------------------------------------------------------------------------|
G----------------------------------------------------------------------------|
B--2h3p2p0-2-0---2h3p2p0-2-0-2h3p2p0-2-----2h3p2p0-----2----2h3p2p0--5-0-1---|
F#-2h3p2p0-2-0---2h3p2p0-2-0-2h3p2p0-2--5--2h3p2p0--5--2----2h3p2p0--5-0-1X3-|
B--2h3p2p0-2-0---2h3p2p0-2-0-2h3p2p0-2-----2h3p2p0-----2----2h3p2p0--5-0-1---|

Variation on the last Chord Progression
E---------------------------------------------------------------------------|
B---------------------------------------------------------------------------|
G---------------------------------------------------------------------------|
B--2h3p2p0-2-0---2h3p2p0-2-0-2h3p2p0-2-----2h3p2p0-----2----12-12-11-10-9-9-|
F#-2h3p2p0-2-0---2h3p2p0-2-0-2h3p2p0-2--5--2h3p2p0--5--2----10-10-9--10-7-7-|
B--2h3p2p0-2-0---2h3p2p0-2-0-2h3p2p0-2-----2h3p2p0-----2----10-10-9--8--7-7-|


Verse- ALL PALM MUTED
E--------------------------------------------------------|
B--------------------------------------------------------|
G--------------------------------------------------------|
B--------------------------------------------------------|
F#------------------------------------------------2--5p2-|
B -2h3p2p0-2-0---2h3p2p0-2-0-2h3p2p0-2---2h3p2p0---------|

E--------------------------------------------------------------|
B--------------------------------------------------------------|
G--------------------------------------------------------------|
B-----------------------------------------------------0h2p0--5-|
F#------------------------------------------------2p0----------|
B -2h3p2p0-2-0---2h3p2p0-2-0-2h3p2p0-2---2h3p2p0---------------|


E--------------------------------------------------------|
B--------------------------------------------------------|
G--------------------------------------------------------|
B--------------------------------------------------------|
F#------------------------------------------------2--5p2-|
B -2h3p2p0-2-0---2h3p2p0-2-0-2h3p2p0-2---2h3p2p0---------|

E---------------------------------------------------------|
B---------------------------------------------------------|
G---------------------------------------------------------|
B----------------------------------------4----------------|
F#---------------------------------------5----------------|
B -2h3p2p0-2-0---2h3p2p0-2-0-2h3p2p0-2---3----------------|

"You bury this slow..."
E--------------   -----------------------|
B--------------   -----------------------|
G---4-4-44-44-    -----------------------|
B---5-5-55-55--   --0-2p0-2p0-xx---------|   X6
F#--3-3-33-33--   --0-2p0-2p0-xx---------|
B--------------   --0-2p0-2p0-xx---------|


Pre Chorus

E--------------------------------------------------------------------|
B--------------------------------------------------------------------|
G-----444444444---------666666666----4444444444----------------------|
B-----555555555---------999999999----5555555555------2---------------|
F#----333333333---------777777777----3333333333------2---------------|
B ---------------------------------------------------2---------------|




       Chorus

E------------------------------------------------------------------------|
B------------------------------------------------------------------------|
G---------------------4-4-44-44------------------------------------------|
B-----2-2-22-22-------5-5-55-55-------5---0------------------------------|
F#----2-2-22-22-------3-3-33-33-------5---0------------------------------|
B ----2-2-22-22-----------------------5---0------------------------------|




Pre Verse

E-------------------|
B-------------------|
G-------------------|
B----0h2p0-2p0-0----|
F#---0h2p0-2p0-0----|
B ---0h2p0-2p0-0----|



Verse 2 (cut me to size)
E-------------------------------------------------------------------------|
B---------------------------------------------------------------0---------|
G---------------------------11-4--------------------------------1---------|
B------22------22----22-----22-5------22------22-------22-------2---------|
F#-----22------22----22-----22-5------22------22-------22-------0---------|
B -----22------22----22-----22-5------22------22-------22-------0---------|

E------------------------------------------------------------------------|
B------------------------------------------------------------------------|
G---------------------------11-4------------------------------11-4-------|
B------22------22----22-----22-5------22------22-------22-----22-5-------|
F#-----22------22----22-----22-5------22------22-------22-----22-5-------|
B -----22------22----22-----22-5------22------22-------22-----22-5-------|



E-------------------------------------|
B-------------------------------------|
G---4-4-44-44-------------------------|
B---5-5-55-55-------2-22-22-22-22-----|
F#--3-3-33-33-------2-22-22-22-22-----|
B-------------------2-22-22-22-22-----|



Pre Chorus
E-------------------------------------------------------------------------|
B-------------------------------------------------------------------------|
G-----444444444---------666666666----4444444444---------------------------|
B-----555555555---------999999999----5555555555------2--------------------|
F#----333333333---------777777777----3333333333------2--------------------|
B ---------------------------------------------------2--------------------|




play Chorus again



Drum Solo


E---------------------|
B---------------------|
G---------------------|
B---------7--9--------|
F#--------7--9--------|
B --------7--9--------|

Play intro riff at "make haste"

E-----------------------------------------------------------------------|
B-----------------------------------------------------------------------|
G-----------------------------------------------------------------------|
B---------12--12--12-12--12-12------12---12--12-12----------------------|
F#--------10--10--10-10--10-10------12---12--12-12----------------------|
B --------10--10--10-10--10-10------12---12--12-12----------------------|



Solo

E----------------------------------------------------7-----7-----7----------|
B--------2---2----5b7-5p2----2-----------2---5---7^9---7b9---7b9-----7p5----|
G----2/4---4---4-----------4------1---4-----------------------------------6-|
B---------------------------------------------------------------------------|
F#--------------------------------------------------------------------------|
B --------------------------------------------------------------------------|



E---------------------7-7-9-7-9-9b11-9------------------------|
B-----5-5-7-5-7-9-7-9--9--------------------------------------|
G----6-6------------------------------------------------------|
B-------------------------------------------------------------|
F#------------------------------------------------------------|
B ------------------------------------------------------------|



Chorus



E------------------|
B------------------|
G------------------|
B--2h3p2p0-2-0-2---| X4
F#-2h3p2p0-2-0-2---|
B--2h3p2p0-2-0-2---|


Last riff
E------------------------|
B------------------------|
G------------------------|
B--2h3p2p0-2p0-0h2p0-----|
F#-2h3p2p0-2p0-0h2p0-----| X4
B--2h3p2p0-2p0-0h2p0-----|


************************************

| /   slide up
| \   slide down
| h   hammer-on
| p   pull-off
| ~   vibrato
| +   harmonic
| x   Mute note
| b   Bend
| pb  Pre-bend
| br  Bend release
| pbr Pre-bend release
| brb Bend release bend

************************************
            
Submit corrections

comments powered by Disqus
↑ Back to top | Karnivool Tabs for Roquefort. Lyrics for acoustic guitar and electric guitar. 1 Tablatures and chords are parodies/interpretations of the original songs. You may use it for private study, scholarship, research or language learning purposes only