>
 >
Fear Of The Sky

Fear Of The Sky Guitar Tabs

Karnivool - Fear Of The Sky chords, tabs, tablatures, lyrics

Guitar lessons | Add/correct | Request | Top 50 tabs Artists:  A B C D E F G H I J K L M N O P Q R S T U V W X Y Z 0-9

Fear Of The Sky Guitar Tabs – Karnivool

CD, Sheet music, Poster

Do you like Fear Of The Sky? Share with your friends now
Tabs
                            Fear Of The Sky                                 
Hey at all,
I couldn't figure it all out, but this is as far as i got.
The intro is repeated throughout the whole song, so at least I got a main part sounding ok..^^
If there are any suggestions and improvements, feel free to contact me via a PM.
Have fun,
TR0UBLE_M@KER


                                                                       Karnivool
Guitar
  Q.     Q.     Q.     Q.        Q.     Q.     E  Q.     Q     
------------------------------|-------------------------------|
---------7-------------7------|---------7----------------5----|
---------6-------------6------|---------6----------------4----|
--0------7------0------7------|--0------7------0--0------5----|
--0-------------0-------------|--0-------------0--0-----------|
--0------0------0------0------|--0------0------0--0------0----|


  S S Q.     Q.     Q.     Q       S S S Q.     Q.     Q.     E  S  
--------------------------------|---------------7-------------7--L-|
--L-L--------5-------------5----|--L-L----------7-------------7--L-|
--L-L--------4-------------4----|--L-L----------6-------------6--L-|
--L-L-0------5------0------5----|--L-L-0-0------7------0------7--L-|
------0-------------0-----------|------0-0-------------0---------L-|
--L-L-0------0------0------0----|--L-L-0-0------0------0------0--L-|


  S S S Q.     Q.     E  Q.     S    Q    S Q.     Q.     Q.     S  
--L-L-L--------7------------------|--------------------------------|
--L-L-L--------7----------------5-|--L----L--------5-------------5-|
--L-L-L--------6----------------4-|--L----L--------4-------------4-|
--L-L-L-0------7------0--0------5-|--L----L-0------5------0------5-|
--L-L-L-0-------------0--0--------|---------0-------------0--------|
--L-L-L-0------0------0--0------0-|--L----L-0------0------0------0-|


  S Q    S Q.     Q.     Q.        Q.     Q.     Q.     E  Q     
--------------------------------|-------------------------------|
--L-L-------------7-------------|--7-------------7--------------|
--L-L-------------6-------------|--6-------------6--------------|
--L-L----0-0------7------0------|--7------0------7------0--0----|
---------0-0-------------0------|---------0-------------0--0----|
--L-L----0-0------0------0------|--0------0------0------0--0----|


  E  Q.     Q.     Q.     Q       E  Q.     S Q.     Q.     E.   
-------------------------------|--------------------------------|
-----5-------------5-----------|-----5---------------7----------|
-----4-------------4-----------|-----4---------------6----------|
--L--5------0------5------0----|--L--5------0-0------7------0---|
------------0-------------0----|------------0-0-------------0---|
--L--0------0------0------0----|--L--0------0-0------0------0---|


  E.  Q.     Q.     Q.     E  S    Q    S Q.     Q.     Q.     S  
--------------------------------|--------------------------------|
------7-------------7-----------|---------5-------------5--------|
------6-------------6-----------|---------4-------------4--------|
--L---7------0------7------0--0-|--L----L-5------0------5------0-|
--L----------0-------------0--0-|--L----L--------0-------------0-|
--L---0------0------0------0--0-|--L----L-0------0------0------0-|


  Q    S Q     S S S S S S S S S S S S S S S  
---------------------------------------------|
---------5\----7-----7-----7-----7-----7-----|
---------4\----7-----7-----7-----7-----7-----|
--L----L-5\----------------------------------|
--L----L-------------------------------------|
--L----L-------------------------------------|


  S S S S S S S S S S S S S S S S S S S S S S S S  
--------------------------------------------------|
--7-----7---7-----7-----7-----7-----7-----7-----7-|
--7-----7---6-----6-----6-----6-----6-----6-----6-|
--------------------------------------------------|
--------------------------------------------------|
--------------------------------------------------|


  S S S S S S S S S S S S S S S S S S S S S S S S  
--------------------------------------------------|
----7-----7-----7-----7-----7-----7-----7---7-----|
----7-----7-----7-----7-----7-----7-----7---6-----|
--------------------------------------------------|
--------------------------------------------------|
--------------------------------------------------|


  S S S S S S S S S S S S S S S S S S S S S S S S  
--------------------------------------------------|
--7-----7-----7-----7-----7-----7---7-----7-----7-|
--6-----6-----6-----6-----6-----6---7-----7-----7-|
--------------------------------------------------|
--------------------------------------------------|
--------------------------------------------------|


  S S S S S S S S S S S S S S S S S S S S S S S S  
--------------------------------------------------|
------7-----7-----7-----7-----7-----7---7-----7---|
------7-----7-----7-----7-----7-----7---6-----6---|
--------------------------------------------------|
--------------------------------------------------|
--------------------------------------------------|


  S S S S S S S S S S S S S S S S S S S S S S S S  
--------------------------------------------------|
----7-----7-----7-----7-----7---7-----7-----7-----|
----7-----7-----7-----7-----7---6-----6-----6-----|
--------------------------------------------------|
--------------------------------------------------|
--------------------------------------------------|


  S S S S S S S S S S S S S S S S S S S S S S S S  
--------------------------------------------------|
--7-----7-----7-----7---7-----7-----7-----7-----7-|
--6-----6-----6-----6---7-----7-----7-----7-----7-|
--------------------------------------------------|
--------------------------------------------------|
--------------------------------------------------|


  S S S S S S S S S S S S S S S S S S S S S S S S  
--------------------------------------------------|
------7-----7---7-----7-----7-----7-----7-----7---|
------7-----7---6-----6-----6-----6-----6-----6---|
--------------------------------------------------|
--------------------------------------------------|
--------------------------------------------------|


  S S S S S S S S S S S S S S S S S S S S S S S S  
--------------------------------------------------|
----7---7-----7-----7-----7-7-7-7-7-7-7-7-7-7-7-7-|
----6---7-----7-----7-----7-7-7-7-7-7-7-7-7-7-7-7-|
--------------------------------------------------|
--------------------------------------------------|
--------------------------------------------------|


  S S S S S S S S S S S S E.  E  E  E.  E   
-------------------------------------------|
--7-7-7-7-7-7-7-7-7-7-7-7------------------|
--7-7-7-7-7-7-7-7-7-7-7-7------------------|
--------------------------0---0-----0---0--|
--------------------------0---0-----0---0--|
--------------------------0---0-----0---0--|


  E  E   E   E  E.  E  E  E   E   E  E.   
-----------------------------------------|
-----------------------------------------|
-----------------------------------------|
-----0--12--12--0---0-----0--12--12--0---|
-----0--12--12--0---0-----0--12--12--0---|
-----0--12--12--0---0-----0--12--12--0---|


                                                          PM  PM             
  E  E  E.  E   E   E   E.   E.  E.  E     S E.  E.  Q    E.  E  S Q.     S  
----------------------------------------|-----------------------------------|
----------------------------------------|---------------------------------7-|
----------------------------------------|---------------------------------6-|
--0-----0---0--12--12--17---10---3---5--|--L-0---3---5----3---3----0------7-|
--0-----0---0--12--12--17---10---3---5--|--L-0---3---5----3---3----0--------|
--0-----0---0--12--12--17---10---3---5--|--L-0---3---5----3---3----0------0-|


  S S S E  Q.     Q.     Q.     S    S S S E  E  Q.     Q.     E.  E   
--L-L-L---------------------------|--L-L-L----------------------------|
--L-L-L-L---------7-------------7-|--L-L-L-L------------5-------------|
--L-L-L-L---------6-------------6-|--L-L-L-L------------4-------------|
--L-L-L-L--0------7------0------7-|--L-L-L-L--0--0------5------0---L--|
--L-L-L----0-------------0--------|--L-L-L----0--0-------------0---L--|
--L-L-L-L--0------0------0------0-|--L-L-L-L--0--0------0------0---L--|


  S Q.     Q.     Q.     S Q       E  Q.     Q.     Q.     Q     
--------------------------------|-------------------------------|
----5-------------5-------------|-----7-------------7-----------|
----4-------------4-------------|-----6-------------6-----------|
--L-5------0------5------0-0----|--L--7------0------7------0----|
--L--------0-------------0-0----|--L---------0-------------0----|
--L-0------0------0------0-0----|--L--0------0------0------0----|


  E  Q.     Q.     Q.     Q                                                     
-------------------------------|
-----5-------------5-----------|
  ----4-------------4-----------|
--L--5------0------5-----------|
--L---------0------------------|
--L--0------0------0-----------|




Duration Legend
---------------
W - whole
H - half
Q - quarter
E - 8th
S - 16th
T - 32nd
X - 64th
. - note dotted
|-n-|  - n-tuplets


Tablature Legend
----------------
L - tied note
x - dead note
g - grace note
(n) - ghost note
> - accentuded note
NH - natural harmonic
AH - artificial harmonic
TH - tapped harmonic
SH - semi harmonic
PH - pitch harmonic
h - hammer on
p - pull off
b - bend
br - bendRelease
pb - preBend
pbr - preBendRelease
brb - bendReleaseBend
\n/ - tremolo bar dip
\n - tremolo bar dive
-/n - tremolo bar Release up
/n\ - tremolo bar inverted dip
/n - tremolo bar return
-\n - tremolo bar Release down
S - shift slide
s - legato slide
/ -  slide into from below or out of upwards
\ -  slide into from above or out of downwards
~ - vibrato
W - wide vibrato
tr - trill
TP - tremolo picking
T - tapping
S - slap
P - pop
< - fade in
^ - brush up
v - brush down





Comments


Popular Karnivool tabs & chords
All I Know 3 Bass Tabs
New Day Bass Tabs
Simple Boy Bass Tabs
The Caudal Lure Bass Tabs
Cote Tabs
Mauseum Tabs
Set Fire To The Hive Tabs
Sewn And Silent 1 Tabs
Success Intro Tabs
Themata Tabs


Song lyrics



↑ Back to top | Tablatures and chords are parodies/interpretations of the original songs. You may use it for private study, scholarship, research or language learning purposes only
© 2014 AZChords.com Contact us | Privacy policy | DMCA | Add/correct tabs | Request tabs | Top 50 tabs