» » »

Karnivool, Fade Tabs (ver.1)

Artists:  A B C D E F G H I J K L M N O P Q R S T U V W X Y Z # 

Fade Tabs (ver.1)

Karnivool Tabs
 Rating:
4.2/5 (5 votes)
Fade lessons Tabs too difficult? Try these video lessons and learn fast
                --------------------------------------------------------
--------------------------------------------------------

Tuning: Karnivool tuning

Here's a rough tab

e |--------------------------------------------------|
B |--------------------------------------------------|
G |--------------------------------------------------|x2
B |--------------------------------------------------|
F#|--0-0-0-1p0--0-0-0-/5p0-0-0-0-1p0-0-0-/5p0-3-0----|
B |--0-0-0-1p0--0-0-0-/5p0-0-0-0-1p0-0-0-/5p0-3-0----|

Play this a few times sorta changing the rythem, it's tricky
e |-------------------------------------|
B |-------------------------------------|
G |-------------------------------------|
B |-------------------------------------|
F#|--0-0-1p0-1/4-1p0--00-1p0-44-1p0-----|
B |--0-0-1p0-1/4-1p0--00-1p0-44-1p0-----|

  "you know i started thinking just the other day..."
e |--------------------------------------|
B |--------------------------------------|
G |--------------------------------------|
B |--------------------------------------|
F#|--------------------------------------|
B |---0-0-1p0-1/4-1p0-00-1p0-44-1p0------|

 "yeah but in my mind i see clearer..."
e |--------------------------------------------|
B |--------------------------------------------|
G |--------------------------------------------|
B |---8~~~-5~~~--------------------------------|
F#|---6~~~-3~~~--------------------------------|
B |--------------------------------------------|

1:17
e |----------------|
B |----------------|
G |----------------|
B |----------------|
F#|---111-111------|
B |---111-111------|
      ... ...

Repeat verse

2nd chorus
e |---------------------------|
B |---------------------------|
G |-------------------6666----|
B |--8~~--5~~--8~~--5-5555----|
F#|--6~~--3~~--6~~--3-3333----|
B |---------------------------|


e |--------------------------------------------------------|
B |--------------------------------------------------------|
G |--------------------------------------------------------|x2
B |------101010-------101010-------101010-----101010-------|
F#|---10\8-8-8-0-0-10\8-8-8-0-0-10\8-8-8-0-0-5/8-8-8-0-0---|
B |---10\8-8-8-0-0-10\8-8-8-0-0-10\8-8-8-0-0-5/8-8-8-0-0---|

play this a heap of times
e |------------------------------------|
B |------------------------------------|
G |------------------------------------|
B |------------------------------------|
F#|--0-0-1p0-1/4-1p0--00-1p0-44-1p0----|
B |--0-0-1p0-1/4-1p0--00-1p0-44-1p0----|

2:19  "you said..."
e |--------------------|
B |--------------------|
G |--------------------|
B |--------------------|
F#|---0-1-0-1-4-1-0----|
B |---0-1-0-1-4-1-0----|
      . . . . . . .
play this heaps again
e |------------------------------------|
B |------------------------------------|
G |------------------------------------|
B |------------------------------------|
F#|--0-0-1p0-1/4-1p0--00-1p0-44-1p0----|
B |--0-0-1p0-1/4-1p0--00-1p0-44-1p0----|

Repeat chorus  and this 
e |--------------------------------------------------------|
B |--------------------------------------------------------|
G |--------------------------------------------------------|x2
B |------101010-------101010-------101010-----101010-------|
F#|---10\8-8-8-0-0-10\8-8-8-0-0-10\8-8-8-0-0-5/8-8-8-0-0---|
B |---10\8-8-8-0-0-10\8-8-8-0-0-10\8-8-8-0-0-5/8-8-8-0-0---|

3:01
e |----------------------------|
B |----------------------------|
G |----------------------------|x2
B |--0---0---0---0---4\1--0----|
F#|--0---0---0---0---4\1--0----|
B |--0---0---0---0---4\1--0----|

3:21
e |-------------------------------------------------------------|
B |-------------------------------------------------------------|
G |-------------------------------------------------------------|x2
B |-------------------------------------------------------------|
F#|---4-0-1-4-0--4-0-1-4-0--4-0-1-4-0--4-0-1-4--4-0-1-4-5555----|
B |---4-0-1-4-0--4-0-1-4-0--4-0-1-4-0--4-0-1-4--4-0-1-4-5555----|
    
e |-------------------------------------------------------------------|
B |-------------------------------------------------------------------|
G |-------------------------------------------------------------------|x2
B |-------------------------------------------------------------------|
F#|---4-0-1-4-0~--4-0-1-4-0~--4-0-1-4-0~--4-0-1-4-0~--4-0-1-4-5555----|
B |---4-0-1-4-0~--4-0-1-4-0~--4-0-1-4-0~--4-0-1-4-0~--4-0-1-4-5555----|

play this a heap of times
e |--------------------------------------------------------|
B |--------------------------------------------------------|
G |--------------------------------------------------------|x2
B |------101010-------101010-------101010-----101010-------|
F#|---10\8-8-8-0-0-10\8-8-8-0-0-10\8-8-8-0-0-5/8-8-8-0-0---|
B |---10\8-8-8-0-0-10\8-8-8-0-0-10\8-8-8-0-0-5/8-8-8-0-0---|
4:19
e |--------------------------------------------------|
B |--------------------------------------------------|
G |--------------------------------------------------|x2
B |--------------------------------------------------|
F#|--0-0-0-1p0--0-0-0-/5p0-0-0-0-1p0-0-0-/5p0-3-0----|
B |--0-0-0-1p0--0-0-0-/5p0-0-0-0-1p0-0-0-/5p0-3-0----|

e |---------------------------------------|
B |---------------------------------------|
G |---------------------------------------|
B |---------------------------------------|x4
F#|--0-0-1p0-1/4-1p0--00-1p0-44-1p0-------|
B |--0-0-1p0-1/4-1p0--00-1p0-44-1p0-------|

end 
e |-----------------|
B |-----------------|
G |-----------------|
B |-----------------|
F#|---0000-000------|
B |---0000-000------|
      .... ...

The End
            
Submit corrections

comments powered by Disqus
↑ Back to top | Karnivool Tabs for Fade. Lyrics for acoustic guitar and electric guitar. Tablatures and chords are parodies/interpretations of the original songs. You may use it for private study, scholarship, research or language learning purposes only