>
 >
Change

Change Guitar Tabs

Karnivool - Change chords, tabs, tablatures, lyrics

Guitar lessons | Add/correct | Request | Top 50 tabs Artists:  A B C D E F G H I J K L M N O P Q R S T U V W X Y Z 0-9

Change Guitar Tabs – Karnivool

CD, Sheet music, Poster

Do you like Change? Share with your friends now
Bass TabsTabs
----------------------------------------------------
                Karnivool - Change
----------------------------------------------------

Tuning: karnivool tuning.
0:11
e |--------------------------------------|
B |--------------------------------------|
G |--------------------------------------|
B |--------------------------------------|
F#|--------------------------------------|
B |---0------0-------0------0-----0------|

0:35
e |------------------------------------------|
B |--///7~---///5~----//10p9\5~--------------|
G |-----------------------------7/11-9\7~----|
B |------------------------------------------|
F#|------------------------------------------|
B |------------------------------------------|
0:51
e |----------------|
B |----------------|
G |---4\\\2--------|x8
B |----------------|
F#|----------------|
B |----------------|

1:14
e |----------------------|
B |----------------------|
G |----------------------|
B |----------------------|
F#|----------------------|
B |---000-0-000-0-000-0--|
      ... . ... . ... .
1:38  "halo..."
e |-----------|
B |-----------|
G |-----------|
B |----0~~----|
F#|-----------|
B |-----------|
1:50   "you'll never..."
e |----------------------------------|
B |----------------------------------|
G |--------------4-----------7-------|x2
B |---0000000000---000000000---------|
F#|----------------------------------|
B |----------------------------------|

e |------------------------------|
B |------------------------------|
G |---22222222222/4\2222222222---|
B |------------------------------|
F#|------------------------------|
B |------------------------------|

2:02  "i become a martyr..."
e |----------------------------------------------------------------|
B |----------------------------------------------------------------|
G |--------4-------7-------4-------4h7---2222222222/4\2222222222---|
B |--00000---00000---00000---00000---------------------------------|
F#|----------------------------------------------------------------|
B |----------------------------------------------------------------|
2:14
e |----------------------------------------------|
B |----------------------------------------------|
G |--66666666666666\44/66\444444444\2222222222---|
B |----------------------------------------------|
F#|----------------------------------------------|
B |----------------------------------------------|
2:20
e |--------------------------------------------------------|
B |--------------------------------------------------------|
G |----------4--------2-------77-------4--------6-------2--|
B |---000000---000000---000000---000000--000000---000000---|
F#|--------------------------------------------------------|
B |--------------------------------------------------------|

2:26  this part is longer than i've typed.
      each note is played fast heaps of times, you gotta listen
      for the timing. it's easy enough.

e |-------------9----------------10-9------------------12----10-9---|
B |-12-10-12-10---10-7-12-10-12-------10-7-12-10-12-10----12--------|
G |-------------------------------------------------------------------|
B |-------------------------------------------------------------------|
F#|-------------------------------------------------------------------|
B |-------------------------------------------------------------------|
3:02  "no more pointing fingers at mistakes..."
e |--------------------|
B |-----3~------5~-----|
G |-----2~------4~-----|
B |---3-3~--5-5-5~-----|
F#|---3-3~--5-5-5~-----|
B |---3-3~--5-5-5~-----|

3:08
e |------------------------------------------------|
B |--0h2h3h5~-0h2h3h5-p3p2~---0h2h3h5~----10-------|
G |------------------------------------------------|
B |-------------------------------------8-----7~---|
F#|------------------------------------------------|
B |------------------------------------------------|
3:26  "what a way to see this thing out..."
e |--------5--------5---10---5~---------5------|
B |----7-5---8~-------8------5~-----7-5---8~---|
G |--4------------4---------------4------------|
B |--------------------------------------------|
F#|--------------------------------------------|
B |--------------------------------------------|

3:43  "hello halow halo..."
e |------------------------------------|
B |------------------------------------|
G |------------------------------------|
B |------3~------3~------3~------3~----|
F#|------------------------------------|
B |---5~------5~-----5~------5~--------|
4:01  "all this leads to nothing..."
e |-----------------------------------|
B |-----------------------------------|
G |-----------------------------------|x4
B |-----------------------------------|
F#|----------------6\1--3~------------|
B |---5---3---10~---------------------|

4:20 guitar 2, pick each note heaps.
"what a way to see this thing out..."

e |---15-14-----15-14------------|
B |---------12--------12---------|
G |------------------------------|
B |------------------------------|
F#|------------------------------|
B |------------------------------|

4:38   "hello halow halo..."
e |-------------------------------------------|
B |-------------------------------------------|
G |-------------------------------------------|
B |--00-0000---000---000-00----000-00----3----|
F#|------------------------------------3------|
B |----------0-----0--------0-----------------|
4:57
e |-------------------------------------------------------------|
B |-------------------------------------------------------------|
G |-------------------------------------------------------------|
B |----------1--------------------------------------------------|
F#|---0~~---------0~~----0-----0~~----0-----0~~---8--10--7--3---|
B |---0~~---------0~~----0-----0~~----0-----0~~---8--10--7--3---|
                         .            .
5:17   guitar 1
e |-------------------------------------------------------------|
B |-------------------------------------------------------------|
G |------4-6~--4-6~--4-6~--4-6~--4-6~--4-6~--4-6~--4-6~--4-6~---|
B |--0~---------------------------------------------------------|
F#|-------------------------------------------------------------|
B |-------------------------------------------------------------|
5:29  guitar 2
e |------------------------------------|
B |-----7-----7-----7-----7------------|
G |---4-----4-----4-----4--------------|
B |------------------------------------|
F#|------------------------------------|
B |------------------------------------|
5:50 guitar 2
e |-------------------|
B |-------------------|
G |-----/9-7-6-\2~----|
B |-------------------|
F#|-------------------|
B |-------------------|
6:07  "sine waves and mirrors..."
e |--------------------------------|
B |--------------------------------|
G |---4-6~--4-6~--4-6~~--4-6~~-----|
B |--------------------------------|
F#|--------------------------------|
B |--------------------------------|


HEAVY PART  6:32
e |----------------------------------------------|
B |----------------------------------------------|
G |----------------------------------------------|
B |----------------------------------------------|
F#|---8-8-10/12-8-8-10/12--7-7-10/12-7-7-10/12---|
B |---8-8-------8-8--------7-7-------7-7---------|

e |----------------------------------------------|
B |----------------------------------------------|
G |----------------------------------------------|
B |----------------------------------------------|
F#|---8-8-10/12-8-8-10/12--7-7-8/12--7-7-10/15---|
B |---8-8-------8-8--------7-7-------7-7---------|

e |---------------------------------------------------------|
B |---------------------------------------------------------|
G |---------------------------------------------------------|
B |-------10/12-----10/12/15-----10/12/15-------10/12\10----|
F#|---8-8-------8-8----------7-7-----------7-7--------------|
B |---8-8-------8-8----------7-7-----------7-7--------------|

e |-----------------------------------------0~---|
B |-----------------------------------------0~---|
G |-----------------------------------------0~---|
B |-------10/12------10/12-----12/17\15----------|
F#|---8-8-------8-8--------7-7----------7-7------|
B |---8-8-------8-8--------7-7----------7-7------|

6:58
e |----------------------------------|
B |----------------------------------|
G |--6~---7~---9~--------------------|
B |----------------10----------------|
F#|----------------------------------|
B |----------------------------------|

Epic Ending. 
7:07   (twelves & tens not 1's, 0's and 2's)
    "blame me..."
e |-------------------------------------|
B |-------------------------------------|
G |-------------------------------------|
B |--12121212121212121210101010101010---|
F#|-------------------------------------|
B |-------------------------------------|
     . . . . . . . . . . . . . . . .
      "maybe the damage has been done..."
e |-------------------------------------------------|
B |-------------------------------------------------|
G |-------------------------------------------------|
B |--10101010101010101010101012121212121212121212---|
F#|-------------------------------------------------|
B |-------------------------------------------------|
     . . . . . . . . . . . . . . . . . . . . . . 
    "as we float away like embers..."
e |-----------------------------------------------------|
B |-----------------------------------------------------|
G |-----------------------------------------------------|
B |--121212121212121212121212101010101010101010101010---|
F#|-----------------------------------------------------|
B |-----------------------------------------------------|
     . . . . . . . . . . . . . . . . . . . . . . . . 
   "beneath us the fire still it burns..."
e |---------------------------------------------------------|
B |---------------------------------------------------------|
G |---------------------------------------------------------|
B |--1010101010101010101010101212121212121212121212121212---|
F#|---------------------------------------------------------|
B |---------------------------------------------------------|
         "and i don't, i don't know why..."
e |-----------------------------------------------------|
B |-----------------------------------------------------|
G |-----------------------------------------------------|
B |--121212121212121212121212101010101010101010101010---|
F#|-----------------------------------------------------|
B |-----------------------------------------------------|
     . . . . . . . . . . . . . . . . . . . . . . . .
       "question who we are and then we die..."
e |---------------------------------------------------------|
B |---------------------------------------------------------|
G |---------------------------------------------------------|
B |--1010101010101010101010101212121212121212121212121212---|
F#|---------------------------------------------------------|
B |---------------------------------------------------------|
     . . . . . . . . . . . . . . . . . . . . . . . . . . 
"i guess i'll see you when it ends, i'll see you round the bend..."
e |-----------------------------------------------------|
B |-----------------------------------------------------|
G |-----------------------------------------------------|
B |--121212121212121212121212101010101010101010101010---|
F#|-----------------------------------------------------|
B |-----------------------------------------------------|
     . . . . . . . . . . . . . . . . . . . . . . . .
       "my sober sorry friend..."
(14's and 15's)
e |---------------------------------------------|
B |---------------------------------------------|
G |---------------------------------------------|
B |--1414141414141414141414141414141515151515---|
F#|---------------------------------------------|
B |---------------------------------------------|

e |--------------------------------------------------------------------|
B |--------------------------------------------------------------------|
G |--------------------------------------------------------------------|
B |--1212121212121212121212121010101010101414141414141414141415151515--|
F#|--------------------------------------------------------------------|
B |--------------------------------------------------------------------|
                                   "don't you feel the same..."
e |-----------------------------------------------------------------------|
B |-----------------------------------------------------------------------|
G |-----------------------------------------------------------------------|
B |--121212121212121212121212121212101010101010101014141414141414151512---|
F#|-----------------------------------------------------------------------|
B |-----------------------------------------------------------------------|

8:16 - 8:39  I think one guitar repeats the above solo and the 
             other plays these chords.

e |---22222222--00000000--00000000--22222222---|
B |---33333333--00000000--22222222--33333333---|
G |---44444444--22222222--22222222--44444444---|
B |--------------------------------------------|
F#|--------------------------------------------|
B |--------------------------------------------|


The chords for the acoustic ending are the same chords above.

Enjoy.


| . palm mute 
| /  slide up
| \  slide down
| h  hammer-on
| p  pull-off
| ~  vibrato
| +  harmonic
| x  Mute note
==========================================





Comments


Popular Karnivool tabs & chords
All I Know 3 Bass Tabs
Change Bass Tabs
New Day Bass Tabs
Simple Boy Bass Tabs
Fade Tabs
Simple Boy Tabs
Sleeping Satellite Tabs
Sleeping Satellite 2 Tabs
Success Intro Tabs
Cote Ukulele


Song lyrics



↑ Back to top | Tablatures and chords are parodies/interpretations of the original songs. You may use it for private study, scholarship, research or language learning purposes only
© 2014 AZChords.com Contact us | Privacy policy | DMCA | Add/correct tabs | Request tabs | Top 50 tabs