>
 >
Twenty 1

Twenty 1 Guitar Tabs

Karma To Burn - Twenty 1 chords, tabs, tablatures, lyrics

Guitar lessons | Add/correct | Request | Top 50 tabs Artists:  A B C D E F G H I J K L M N O P Q R S T U V W X Y Z 0-9

Twenty 1 Guitar Tabs – Karma To Burn

CD, Sheet music, Poster

Do you like Twenty 1? Share with your friends now
TabsTabs v2Tabs v3
Tuning: Dropped D (D,A,D,G,e,b) (Low to High)


 natural harmonics
p  pull off
h  hammer on
b  bend
)  tremelo pick while sliding
/  slide up
\  slide down
... play until you think it is time to move on.
PM  palm mute


riff one
g-4-2-h-4--2-h-4--2-h-4--2-h-4--2-h-4------
d-4-2-h-4--2-h-4--2-h-4--2-h-4--2-h-4--2-0-
A-2-2--(2)-2--(2)-2--(2)-2--(2)-2--(2)-2-0-
D--------------------------------------2-0-

then goes into... 
(listen for change up)
  B               D     E             C     D
g-4-2--/-7-\-7-h-9--7-h-9--7-h-9--7-h-9--5-5-5-7-7-7---
d-4-2--/-7-\-7-h-9--7-h-9--7-h-9--7-h-9--5-5-5-7-7-7---
A-2-2--/-5-\-7--(7)-7--(7)-7--(7)-7--(9)-3-3-3-5-5-5---
D------------------------------------------------------

riff two

D-10--99-99-99-10--99-99-99-7--99-99-99-xx-2-xx-5-xx-
A-10--99-99-99-10--99-99-99-7--99-99-99-xx-2-xx-5-xx-
D-10--99-99-99-10--99-99-99-7--99-99-99-xx-2-xx-5-xx-

g------------------------------------------9b-xx-7b-xx-
D-10--99-99-99-10--99-99-99-7--99-99-99-xx-9b-xx-7b-xx-
A-10--99-99-99-10--99-99-99-7--99-99-99-xx-7b-xx-5b-xx-
D-10--99-99-99-10--99-99-99-7--99-99-99-xx-------------

riff three

G-4-p-2-h-4--t-4-p-2-h-4--t--7-p-5-h-7--x-9b-x-5b-x---
D-4-p-2-h-4--s-4-p-2-h-4--s--7-p-5-h-7--x-9b-x-5b-x---
A-2--(2)-(2)-e-2--(2)-(2)-e--5--(5)-----x-7b-x-3b-x---
D------------r------------r-------------------------

ends with...
g-777777777-999999999-
D-777777777-999999999-
A-555555555-777777777-
D---------------------

riff four
drag you pick along the strings between each chord
G-4---2---5---4--9--5-----
D-4---2---5---4--9--5-----
A-2---0---3---2--7--3-----
D-------------------------

g-77777777777777--
D-77777777777777--
A-55555555555555--
D-----------------

Riff 5
(all palm muted)
D-7h9-7h9-7h9-7h9--
A-7h9-7h9-7h9-7h9-- 6x
D-7h9-7h9-7h9-7h9-

solo

g|----------------------------------------------------------
D|o-9br9-9br9-9br9-9br9-9\5-9\5-9\5-9\5-7--9\5-9\5-9\5-9\5-7-
A|o---------------------------------------------------------
D|----------------------------------------------------------

--------------------9br9-9br9-9br9-9br9------|---|
-9/5-9/5-9/5-9/5-12---------------------12b-o|-9-|
--------------------------------------------o|---|
---------------------------------------------|---|

ending...
listen to how it goes on the cd.
D-10-99-99-99-99-99-99-99--10-10-99-99-99-99-
A-10-99-99-99-99-99-99-99--10-10-99-99-99-99-
D-10-99-99-99-99-99-99-99--10-10-99-99-99-99-

-7b-xx-7b-xx-|
-7b-xx-7b-xx-|
-7b-xx-7b-xx-|

you can figure this part out easily





Comments


Popular Karma To Burn tabs & chords
Bobbi, Bobbi, Bobbi - I'm Not God Tabs
Forty-three Tabs
Ma Petite Mort Tabs
Nine Tabs
Thirty Two 1 Tabs
Twenty Tabs
Twenty 2 Tabs
Twenty Eight Tabs
Twenty Nine Tabs
Twenty Nine 1 Tabs


Song lyrics



↑ Back to top | Tablatures and chords are parodies/interpretations of the original songs. You may use it for private study, scholarship, research or language learning purposes only
© 2014 AZChords.com Contact us | Privacy policy | DMCA | Add/correct tabs | Request tabs | Top 50 tabs