>
 >
Thirty Two 1

Thirty Two 1 Guitar Tabs

Karma To Burn - Thirty Two 1 chords, tabs, tablatures, lyrics

Guitar lessons | Add/correct | Request | Top 50 tabs Artists:  A B C D E F G H I J K L M N O P Q R S T U V W X Y Z 0-9

Thirty Two 1 Guitar Tabs – Karma To Burn

CD, Sheet music, Poster

Do you like Thirty Two 1? Share with your friends now
TabsTabs v2


tune 2 steps down
       
                 
Eb|--------------------------------------------------------------------------|
Bb|--------------------------------------------------------------------------|
F#|--------------------------------------------------------------------------|
C#|-10h12---10-10-10-10------10-7----7-7--10h12---12-12b-10-7----7-7-----7-7-|
G#|-0-----0-0--0--0--0--0-0--0--0--0-0-0--0-----0-0--0---0--0-0--0-0-0-0-0-0-|
C#|--------------------------------------------------------------------------|

                                                  -------
Eb|----------------------------------------------/--------------------------------|
Bb|---------------------------------------------/---------------------------------|
F#|--------------------------------------------/----------------------------------|
C#|-10h12---10-10-10-10------10-7----7-7--12bf/--12-12-12--12--10-10--7-7-----7-7-|
G#|-0-----0-0--0--0--0--0-0--0--0--0-0-0--0------0--0--0---0---0--0---0-0-0-0-0-0-|
C#|-------------------------------------------------------------------------------|

Eb|------------------------------------------------------------------------|
Bb|-5---5---5---5~~~-5-------------------5-7----7b-------------------------|
F#|-5-7-5---5---5~~~-5-------------------5-7--5-7b--5----------------------|
C#|-0-0-0-0-0-0-0--------7~~~-7-7~~~~--0-0-0--0-0---0--7-7-----x-x-x-x-x-x-|
G#|----------------------------------------------------0-0-0-0-x-x-x-x-x-x-|
C#|------------------------------------------------------------x-x-x-x-x-x-|

                                                         -------------
Eb|-----------------------------------------------------/-------------------|
Bb|-5---5---5---5~~~-5-------------------7b-7---5-7-7bf/-7-7-7-7-7-7-7--7---|
F#|-5-7-5---5---5~~~-5-------------------7b-7---5-7-7bf--7-7-7-7-7-7-7--7---|
C#|-0-0-0-0-0-0-0--------7~~~-7-7~~~~-7-------7-----------------------------|
G#|-------------------------------------------------------------------------|
C#|-------------------------------------------------------------------------|

Eb|------------------------------------------------------------------------|
Bb|-5---5---5---5~~~-5-------------------5-7----7b-------------------------|
F#|-5-7-5---5---5~~~-5-------------------5-7--5-7b--5----------------------|
C#|-0-0-0-0-0-0-0--------7~~~-7-7~~~~--0-0-0--0-0---0--7-7-----x-x-x-x-x-x-|
G#|----------------------------------------------------0-0-0-0-x-x-x-x-x-x-|
C#|------------------------------------------------------------x-x-x-x-x-x-|

                                                         -------------
Eb|-----------------------------------------------------/-------------------|
Bb|-5---5---5---5~~~-5-------------------7b-7---5-7-7bf/-7-7-7-7-7-7-7--7---|
F#|-5-7-5---5---5~~~-5-------------------7b-7---5-7-7bf--7-7-7-7-7-7-7--7---|
C#|-0-0-0-0-0-0-0--------7~~~-7-7~~~~-7-------7-----------------------------|
G#|-------------------------------------------------------------------------|
C#|-------------------------------------------------------------------------|

                                                                                -----------
Eb|----------------------------------------------------------------------------/-----------|
Bb|--------------------------------------------10-------------13-13-13-13-15bf/-15-15-15-15|
F#|-8-------9-------10-------11-------12---------------------------------------------------|
C#|---7-7-7---7-7-7----7-7-7----7-7-7----7-7-7----7-7-7-7-7-7------------------------------|
G#|----------------------------------------------------------------------------------------|
C#|----------------------------------------------------------------------------------------|

Eb|-000-8-000-10-000-8-000-10-000-8-000-10-000-8-000-10-000-8-000-10-000-8-----------|
Bb|-------------------------------------------------------------------------10-10~~~-|
F#|----------------------------------------------------------------------------------|
C#|----------------------------------------------------------------------------------|
G#|----------------------------------------------------------------------------------|
C#|----------------------------------------------------------------------------------|

                                                                       ------------------
Eb|-000-8-000-10-000-8-000-10-000-8-000-10-000-8-000-10-000-8-000-10bf/-10-10-10-10-10-10-|
Bb|---------------------------------------------------------------------------------------|
F#|---------------------------------------------------------------------------------------|
C#|---------------------------------------------------------------------------------------|
G#|---------------------------------------------------------------------------------------|
C#|---------------------------------------------------------------------------------------|

Eb|--------------------------|
Bb|--------------------------|
F#|--------------------------|
C#|------------------7-5-7-5-|
G#|-5-5--7--10-10-7--5-3-5-3-|
C#|-3-3--5--8--8--5----------|

Eb|--------------------------|
Bb|--------------------------|
F#|--------------------------|
C#|------------------7-5-7-7-|
G#|-5-5--7--10-10-7--5-3-5-5-|
C#|-3-3--5--8--8--5----------|

Eb|--------------------------|
Bb|--------------------------|
F#|--------------------------|
C#|------------------7-5-7-5-|
G#|-5-5--7--10-10-7--5-3-5-3-|
C#|-3-3--5--8--8--5----------|

Eb|--------------------------|
Bb|--------------------------|
F#|--------------------------|
C#|------------------7-5-7-7-|
G#|-5-5--7--10-10-7--5-3-5-5-|
C#|-3-3--5--8--8--5----------|


Eb|--------------------------|
Bb|--------------------------|
F#|--------------------------|
C#|------------------7-5-7-5-|
G#|-5-5--7--10-10-7--5-3-5-3-|
C#|-3-3--5--8--8--5----------|

Eb|--------------------------|
Bb|--------------------------|
F#|--------------------------|
C#|------------------7-5-7-7-|
G#|-5-5--7--10-10-7--5-3-5-5-|
C#|-3-3--5--8--8--5----------|


Eb|--------------------------|
Bb|--------------------------|
F#|--------------------------|
C#|------------------7-5-7-5-|
G#|-5-5--7--10-10-7--5-3-5-3-|
C#|-3-3--5--8--8--5----------|

Eb|--------------------------|
Bb|--------------------------|
F#|--------------------------|
C#|------------------7-5-7-7-|
G#|-5-5--7--10-10-7--5-3-5-5-|
C#|-3-3--5--8--8--5----------|


Eb|------------------------------------------------------------------------|
Bb|-5---5---5---5~~~-5-------------------5-7----7b-------------------------|
F#|-5-7-5---5---5~~~-5-------------------5-7--5-7b--5----------------------|
C#|-0-0-0-0-0-0-0--------7~~~-7-7~~~~--0-0-0--0-0---0--7-7-----x-x-x-x-x-x-|
G#|----------------------------------------------------0-0-0-0-x-x-x-x-x-x-|
C#|------------------------------------------------------------x-x-x-x-x-x-|

                                                         -------------
Eb|-----------------------------------------------------/-------------------|
Bb|-5---5---5---5~~~-5-------------------7b-7---5-7-7bf/-7-7-7-7-7-7-7--7---|
F#|-5-7-5---5---5~~~-5-------------------7b-7---5-7-7bf--7-7-7-7-7-7-7--7---|
C#|-0-0-0-0-0-0-0--------7~~~-7-7~~~~-7-------7-----------------------------|
G#|-------------------------------------------------------------------------|
C#|-------------------------------------------------------------------------|

Eb|------------------------------------------------------------------------|
Bb|-5---5---5---5~~~-5-------------------5-7----7b-------------------------|
F#|-5-7-5---5---5~~~-5-------------------5-7--5-7b--5----------------------|
C#|-0-0-0-0-0-0-0--------7~~~-7-7~~~~--0-0-0--0-0---0--7-7-----x-x-x-x-x-x-|
G#|----------------------------------------------------0-0-0-0-x-x-x-x-x-x-|
C#|------------------------------------------------------------x-x-x-x-x-x-|

                                                         -------------
Eb|-----------------------------------------------------/-------------------|
Bb|-5---5---5---5~~~-5-------------------7b-7---5-7-7bf/-7-7-7-7-7-7-7--7---|
F#|-5-7-5---5---5~~~-5-------------------7b-7---5-7-7bf--7-7-7-7-7-7-7--7---|
C#|-0-0-0-0-0-0-0--------7~~~-7-7~~~~-7-------7-----------------------------|
G#|-------------------------------------------------------------------------|
C#|-------------------------------------------------------------------------|

                                                                               -----------
Eb|----------------------------------------------------------------------------/-----------|
Bb|--------------------------------------------10-------------13-13-13-13-15bf/-15-15-15-15|
F#|-8-------9-------10-------11-------12---------------------------------------------------|
C#|---7-7-7---7-7-7----7-7-7----7-7-7----7-7-7----7-7-7-7-7-7------------------------------|
G#|----------------------------------------------------------------------------------------|
C#|----------------------------------------------------------------------------------------|


Eb|-000-8-000-10-000-8-000-10-000-8-000-10-000-8-000-10-000-8-000-10-000-8-----------|
Bb|-------------------------------------------------------------------------10-10~~~-|
F#|----------------------------------------------------------------------------------|
C#|----------------------------------------------------------------------------------|
G#|----------------------------------------------------------------------------------|
C#|----------------------------------------------------------------------------------|

                                                                       ------------------
Eb|-000-8-000-10-000-8-000-10-000-8-000-10-000-8-000-10-000-8-000-10bf/-10-10-10-10-10-10-|
Bb|---------------------------------------------------------------------------------------|
F#|---------------------------------------------------------------------------------------|
C#|---------------------------------------------------------------------------------------|
G#|---------------------------------------------------------------------------------------|
C#|---------------------------------------------------------------------------------------|

Eb|--------------------------|
Bb|--------------------------|
F#|--------------------------|
C#|------------------7-5-7-5-|
G#|-5-5--7--10-10-7--5-3-5-3-|
C#|-3-3--5--8--8--5----------|

Eb|--------------------------|
Bb|--------------------------|
F#|--------------------------|
C#|------------------7-5-7-7-|
G#|-5-5--7--10-10-7--5-3-5-5-|
C#|-3-3--5--8--8--5----------|

Eb|--------------------------|
Bb|--------------------------|
F#|--------------------------|
C#|------------------7-5-7-5-|
G#|-5-5--7--10-10-7--5-3-5-3-|
C#|-3-3--5--8--8--5----------|

Eb|--------------------------|
Bb|--------------------------|
F#|--------------------------|
C#|------------------7-5-7-7-|
G#|-5-5--7--10-10-7--5-3-5-5-|
C#|-3-3--5--8--8--5----------|


Eb|--------------------------------|
Bb|--------------------------------|
F#|--------------------------------|
C#|-5-5-5-5-5-5--5-5-5-5-5-5--7--7-|
G#|-3-3-3-3-3-3--3-3-3-3-3-3--5--5-|
C#|--------------------------------|

Eb|---------------------------------------------------------------------|
Bb|---------------------------------------------------------------------|
F#|---------------------------------------------------------------------|
C#|---------------------------------------------------------------------|
G#|---------------------------------------------------------------------|
C#|-3-5-5-5-5-5-5-5--3-5-5-5-5-5-5-5--3-5-5-5-5-5-5-5--3-5-5-5-5-5-5-5--|

Eb|--------------------------------|
Bb|--------------------------------|
F#|--------------------------------|
C#|-5-5-5-5-5-5--5-5-5-5-5-5--7--7-|
G#|-3-3-3-3-3-3--3-3-3-3-3-3--5--5-|
C#|--------------------------------|

Eb|---------------------------------------------------------------------|
Bb|---------------------------------------------------------------------|
F#|---------------------------------------------------------------------|
C#|---------------------------------------------------------------------|
G#|---------------------------------------------------------------------|
C#|-3-5-5-5-5-5-5-5--3-5-5-5-5-5-5-5--3-5-5-5-5-5-5-5--3-5-5-5-5-5-5-5--|

Eb|--------------------------------|
Bb|--------------------------------|
F#|--------------------------------|
C#|-5-5-5-5-5-5--5-5-5-5-5-5--7--7-|
G#|-3-3-3-3-3-3--3-3-3-3-3-3--5--5-|
C#|--------------------------------|

Eb|---------------------------------------------------------------------|
Bb|---------------------------------------------------------------------|
F#|---------------------------------------------------------------------|
C#|---------------------------------------------------------------------|
G#|---------------------------------------------------------------------|
C#|-3-5-5-5-5-5-5-5--3-5-5-5-5-5-5-5--3-5-5-5-5-5-5-5--3-5-5-5-5-5-5-5--|

                pick slide
Eb|------------------------------------|
Bb|------------------------------------|
F#|------------------------------------|
C#|-5-5-5-5-5-5------5-5-5-5-5-5--7--7-|
G#|-3-3-3-3-3-3--x/--3-3-3-3-3-3--5--5-|
C#|--------------x/--------------------|


Eb|---------------------------------------------------------------------|
Bb|---------------------------------------------------------------------|
F#|---------------------------------------------------------------------|
C#|---------------------------------------------------------------------|
G#|---------------------------------------------------------------------|
C#|-3-5-5-5-5-5-5-5--3-5-5-5-5-5-5-5--3-5-5-5-5-5-5-5--3-5-5-5-5-5-5-5--|

Eb|---------------------------------------------------------------------|
Bb|---------------------------------------------------------------------|
F#|---------------------------------------------------------------------|
C#|---------------------------------------------------------------------|
G#|---------------------------------------------------------------------|
C#|-3-5-5-5-5-5-5-5--3-5-5-5-5-5-5-5--3-5-5-5-5-5-5-5--3-5-5-5-5-5-5-5--|

Eb|---------------------------------------------------------------------|
Bb|---------------------------------------------------------------------|
F#|---------------------------------------------------------------------|
C#|---------------------------------------------------------------------|
G#|---------------------------------------------------------------------|
C#|-3-5-5-5-5-5-5-5--3-5-5-5-5-5-5-5--3-5-5-5-5-5-5-5--3-5-5-5-5-5-5-5--|

Eb|----------------------------------------------------------------|
Bb|----------------------------------------------------------------|
F#|----------------------------------------------------------------|
C#|----------------------------------------------------------------|
G#|-3-5-5-5-5-5-5-5--3-5-5-5-5-5-5-5--3-5-5-5-5-5-5-5--5b-3--------|
C#|---------------------------------------------------------5------|

                                                                               -----------
Eb|----------------------------------------------------------------------------/-----------|
Bb|--------------------------------------------10-------------13-13-13-13-15bf/-15-15-15-15|
F#|-8-------9-------10-------11-------12---------------------------------------------------|
C#|---7-7-7---7-7-7----7-7-7----7-7-7----7-7-7----7-7-7-7-7-7------------------------------|
G#|----------------------------------------------------------------------------------------|
C#|----------------------------------------------------------------------------------------|


Eb|-000-8-000-10-000-8-000-10-000-8-000-10-000-8-000-10-000-8-000-10-000-8-----------|
Bb|-------------------------------------------------------------------------10-10~~~-|
F#|----------------------------------------------------------------------------------|
C#|----------------------------------------------------------------------------------|
G#|----------------------------------------------------------------------------------|
C#|----------------------------------------------------------------------------------|


                                                                       ------------------
Eb|-000-8-000-10-000-8-000-10-000-8-000-10-000-8-000-10-000-8-000-10bf/-10-10-10-10-10-10-|
Bb|---------------------------------------------------------------------------------------|
F#|---------------------------------------------------------------------------------------|
C#|---------------------------------------------------------------------------------------|
G#|---------------------------------------------------------------------------------------|
C#|---------------------------------------------------------------------------------------|

Eb|-10--8--8----|
Bb|--------10---|
F#|-------------|
C#|-------------|
G#|-------------|
C#|-------------|

Eb|--------------------------|
Bb|--------------------------|
F#|--------------------------|
C#|------------------7-5-7-5-|
G#|-5-5--7--10-10-7--5-3-5-3-|
C#|-3-3--5--8--8--5----------|

Eb|--------------------------|
Bb|--------------------------|
F#|--------------------------|
C#|------------------7-5-7-7-|
G#|-5-5--7--10-10-7--5-3-5-5-|
C#|-3-3--5--8--8--5----------|


Eb|--------------------------|
Bb|--------------------------|
F#|--------------------------|
C#|------------------7-5-7-5-|
G#|-5-5--7--10-10-7--5-3-5-3-|
C#|-3-3--5--8--8--5----------|

Eb|---------------------------------------------------|
Bb|---------------------------------------------------|
F#|---------------------------------------------------|
C#|------------------7-5------------------------------|
G#|-5-5--7--10-10-7--5-3-3-7--7-7-7-7-7-7-7-7-7-7-7-7-|
C#|-3-3--5--8--8--5------5-5--5-5-5-5-5-5-5-5-5-5-5-5-|


Eb|------------------------------------------------------------|
Bb|------------------------------------------------------------|
F#|------------------------------------------------------------|
C#|------------------------------------------------------------|
G#|--7--7--7--7--7--7---7--------------------------------------|
C#|--5--5--5--5--5--5---5--------------------------------------|





Comments


Popular Karma To Burn tabs & chords
30 Tabs
Bobbi, Bobbi, Bobbi - I'm Not God Tabs
Forty-three Tabs
One Intro Tabs
Thirty Six Tabs
Thirty Two Tabs
Twenty Tabs
Twenty 2 Tabs
Twenty Eight Tabs
Twenty Nine 1 Tabs


Song lyrics



↑ Back to top | Tablatures and chords are parodies/interpretations of the original songs. You may use it for private study, scholarship, research or language learning purposes only
© 2014 AZChords.com Contact us | Privacy policy | DMCA | Add/correct tabs | Request tabs | Top 50 tabs