» » »

Karma To Burn, Thirty Two Tabs (ver.1)

Artists:  A B C D E F G H I J K L M N O P Q R S T U V W X Y Z # 

Thirty Two Tabs (ver.1)

Karma To Burn Tabs
 Rating:
4/5 (4 votes)
Thirty Two lessons Tabs too difficult? Try these video lessons and learn fast
                Tuning: Dropped D (D,A,D,G,e,b) (Low to High)


<> natural harmonics
p  pull off
h  hammer on
b  bend
)  tremelo pick while sliding
/  slide up
\  slide down
... play until you think it is time to move on.
PM  palm mute

Intro: (b-b-b-b = keep playing same note while bending)
|----------------------------------|----------------------|
|----------------------------------|----------------------|
|-3\5-3-3-3b~-3-0---0-0-3\5-5b-3-0-|-0-0-6-6b-b-b-b-5-3-0-|
|----------------------------------|--------------------0-|
|----------------------------------|----------------------|
|----------------------------------|----------------------|

Riff 1
|-------------------------------------------
|-------------------------------------------
|-3\5-3-333b~-3-0---0-0-3\5-5b-3-0-xxxxxxxx-
|-3\5-3-333b~-3-0---0-0-3\5-5b-3-0-xxxxxxxx-
|----------------------------------xxxxxxxx-
|----------------------------------xxxxxxxx-

---------------------------------------------|
---------------------------------------------|
--3\5-3-333b~-3-0---0-0-6\5-3-5-6br6-6666...-|
--3\5-3-333b~-3-0---0-0-6\5-3-5-6br6-6666...-|
---------------------------------------------|
---------------------------------------------|

Riff 2
|---------------------------------------
|---------------------------------------
|-3-0-0-5-0-0-6-0-0-8-0-0-10-0-0-12-0-0-
|-----0-----0-----0-----0------0------0-
|---------------------------------------
|---------------------------------------

-----------------------------------|
-----------------------------------|
15-151515151515-18-18181818181818--|
-----------------------------------|
-----------------------------------|
-----------------------------------|

Riff 3a
|-------------------------------------------------------------------|
|-------------------------------------------------------------------|
|-15-0-17-0-15-0-17-0-15-0-17-0-15-0-17-0-15-0-17-15-0-17-0-12b-12b-|
|-------------------------------------------------------------------|
|-------------------------------------------------------------------|
|-------------------------------------------------------------------|

Riff 3b (play the -12- the very last time only)
|-----------------------------------------------------|----|
|-----------------------------------------------------|----|
|-15-0-17-0-15-0-17-0-15-0-17-0-15-0-17-0-18b-b-b-b-b-|-12-|
|-----------------------------------------------------|----|
|-----------------------------------------------------|----|
|-----------------------------------------------------|----|

Riff 4 (this riff is so awesome)
|---------------------------------------------------|
|---------------------------------------------------|
|---------------------------------------------------|
|--3-3\5--8-8/5-10b-8-10b-8--3-3\5--8-8/5-10b-8-10b-|
|--3-3\5--8-8/5-10b-8-10b-8--3-3\5--8-8/5-10b-8-10b-|
|--3-3\5--8-8/5-10b-8-10b-8--3-3\5--8-8/5-10b-8-10b-|
pm .      .                  .      .   

Riff 5 
|-------------------------------|
|-------------------------------|
|-------------------------------|
|-8-88-8--88-8---8-88-8--88-810-|
|-8-88-8--88-8---8-88-8--88-810-|
|-8-88-8--88-8---8-88-8--88-810-|

Riff 6
|-----------|
|-----------|
|-----------|
|-----------|
|-----------|
|-3h5-55-55-|

Riff 7
|------------------------------|
|------------------------------|
|------------------------------|
|-8-88-8-88-8\---8-88-8-88-810-|
|-8-88-8-88-8\---8-88-8-88-810-|
|-8-88-8-88-8\---8-88-8-88-810-|

Riff 8 (this is same rhythm as riff 6)
|-----------------------------------------|
|-----------------------------------------|
|-----------------------------------------|
|-----------------------------------------|
|-----------------------------------------|
|-8h10-1010-1010 ...(2X)---8h10-1010-1010b-8-5-|

Ending...
|------------------|
|------------------|
|------------------|
|-8-3-5...-5-5-5\0-|
|-8-3-5...-5-5-5\0-|
|-8-3-5...-5-5-5\0-|
            
Submit corrections

comments powered by Disqus
↑ Back to top | Karma To Burn Tabs for Thirty Two. Lyrics for acoustic guitar and electric guitar. Tablatures and chords are parodies/interpretations of the original songs. You may use it for private study, scholarship, research or language learning purposes only