» » »

Thirty Six Tabs (ver.1)

Artists:  A B C D E F G H I J K L M N O P Q R S T U V W X Y Z # 

Thirty Six Tabs (ver.1)

Karma To Burn
Rating:
5/5 (2 votes)

Hard to play? Try these video lessons and learn fast.
                                                   THIRTY SIX
                          As recorded by Karma to Burn
                      (From the 2001 Album ALMOST HEATHEN)
                           Also available as PowerTab

Feel free to leave comments, if you like to!

Tuning  :  D A D G B E
Tempo   :   around 90-100bpm

 Intro
|---------------------------------------------|
|---------------------------------------------|
|---------------------------------------------|
|-11-11-11-10-10-------8-8-10-10----8-8-10----|
|----------------10-10-----------10--------10-|
|---------------------------------------------|


|------------------------------------------------|
|------------------------------------------------|
|------------------------------------------------|
|-11-11-11-10-10-8-8-----------------------------|
|--------------------10-10-10-10-10-10-10-10-10--|
|------------------------------------------------|


|---------------------------------------------|
|---------------------------------------------|
|---------------------------------------------|
|-11-11-11-10-10-------8-8-10-10----8-8-10----|
|----------------10-10-----------10--------10-|
|---------------------------------------------|


|-----------------------------------------------|
|-----------------------------------------------|
|-----------------------------------------------|
|-11-11-11-10-10-8-8-10-10-10-10-10-10-10-10----|
|--------------------------------------------10-|
|-----------------------------------------------|


|---------------------------------------------|
|---------------------------------------------|
|---------------------------------------------|
|-11-11-11-10-10-------8-8-10-10----8-8-10----|
|----------------10-10-----------10--------10-|
|---------------------------------------------|


|-----------------------------------------------|
|-----------------------------------------------|
|-----------------------------------------------|
|-11-11-11-10-10-8-8----------------------------|
|--------------------10-10-10-10-10-10-10-10-10-|
|-----------------------------------------------|


|---------------------------------------------|--------------------||
|---------------------------------------------|--------------------||
|---------------------------------------------|--------------------||
|-11-11-11-10-10-------8-8-10-10----8-8-10----|-8-8-8-8b9r8b9-5----||
|----------------10-10-----------10--------10-|-8-8-8-8b9r8b9-5----||
|---------------------------------------------|-8-8-8-8b9r8b9-5----||


 Riff 1
||----------------------------|------------------------|
||o---------------------------|------------------------|
||----------------------------|------------------------|
||--11-11-11-10-5-8-10-5-8-10-|-11-11-11-10-8-5----(5)-|
||o-11-11-11-10-5-8-10-5-8-10-|-11-11-11-10-8-5----(5)-|
||--11-11-11-10-5-8-10-5-8-10-|-11-11-11-10-8-5----(5)-|


|---------------------------|-----------------------------|
|---------------------------|-----------------------------|
|---------------------------|-----------------------------|
|-11-11-11-10-5-8-10-5-8-10-|-11-11-11-10-8-10b11----(10)-|
|-11-11-11-10-5-8-10-5-8-10-|-11-11-11-10-8-10b11----(10)-|
|-11-11-11-10-5-8-10-5-8-10-|-11-11-11-10-8-10b11----(10)-|


|---------------------------|------------------------|
|---------------------------|------------------------|
|---------------------------|------------------------|
|-11-11-11-10-5-8-10-5-8-10-|-11-11-11-10-8-5----(5)-|
|-11-11-11-10-5-8-10-5-8-10-|-11-11-11-10-8-5----(5)-|
|-11-11-11-10-5-8-10-5-8-10-|-11-11-11-10-8-5----(5)-|


|-------------------------------|----------------|
|-------------------------------|----------------|
|-------------------------------|----------------|
|-11-11-11-10-5-8-(8)-(8)-(8)-5-|-8-8-8-8-8-5----|
|-11-11-11-10-5-8-(8)-(8)-(8)-5-|-8-8-8-8-8-5----|
|-11-11-11-10-5-8-(8)-(8)-(8)-5-|-8-8-8-8-8-5----|


 Riff 2
  1.
|---------------|--------------|---------------|----------------|
|---------------|--------------|---------------|----------------|
|---------------|--------------|---------------|----------------|
|-5-8-10--8-5-3-|-5-8-5----(5)-|-5-8-10--8-5-3-|-5-8b9-5----(5)-|
|---------------|--------------|---------------|----------------|
|-5-8-10--8-5-3-|-5-8-5----(5)-|-5-8-10--8-5-3-|-5-8b9-5----(5)-|


|---------------|----------------|---------------|-----------------||
|---------------|----------------|---------------|----------------o||
|---------------|----------------|---------------|-----------------||
|-10-8-5--3-5-3-|-8b9r8b9-6----3-|-5-8-10--8-5-3-|-5-8-5----(5)----||
|---------------|----------------|---------------|----------------o||
|-10-8-5--3-5-3-|-8b9r8b9-6----3-|-5-8-10--8-5-3-|-5-8-5----(5)----||


 Riff 2 - altered ending!
  2.
|---------------|--------------|---------------|----------------|
|---------------|--------------|---------------|----------------|
|---------------|--------------|---------------|----------------|
|-5-8-10--8-5-3-|-5-8-5----(5)-|-5-8-10--8-5-3-|-5-8b9-5----(5)-|
|---------------|--------------|---------------|----------------|
|-5-8-10--8-5-3-|-5-8-5----(5)-|-5-8-10--8-5-3-|-5-8b9-5----(5)-|


|---------------|----------------|---------------|----------------|
|---------------|----------------|---------------|----------------|
|---------------|----------------|---------------|--------8-8-8---|
|-10-8-5--3-5-3-|-8b9r8b9-6----3-|-5-8-10--8-5-3-|-5-8-5--8-8-8---|
|---------------|----------------|---------------|--------6-6-6---|
|-10-8-5--3-5-3-|-8b9r8b9-6----3-|-5-8-10--8-5-3-|-5-8-5----------|


 Riff 2 - add5
|---------------|--------------|---------------|----------------|
|---------------|--------------|---------------|----------------|
|---------------|--------------|---------------|----------------|
|-5-8-10--8-5-3-|-5-8-5----(5)-|-5-8-10--8-5-3-|-5-8b9-5----(5)-|
|-5-8-10--8-5-3-|-5-8-5----(5)-|-5-8-10--8-5-3-|-5-8b9-5----(5)-|
|-5-8-10--8-5-3-|-5-8-5----(5)-|-5-8-10--8-5-3-|-5-8b9-5----(5)-|


|---------------|----------------|---------------|----------------|
|---------------|----------------|---------------|----------------|
|---------------|----------------|---------------|----------------|
|-10-8-5--3-5-3-|-8b9r8b9-6----3-|-5-8-10--8-5-3-|-5-8-5----(5)---|
|-10-8-5--3-5-3-|-8b9r8b9-6----3-|-5-8-10--8-5-3-|-5-8-5----(5)---|
|-10-8-5--3-5-3-|-8b9r8b9-6----3-|-5-8-10--8-5-3-|-5-8-5----(5)---|


 Riff 3
  PM--------------------------------------------|
||----------------------------------------------|
||o---------------------------------------------|
||----------------------------------------------|
||----------------------------------------------|
||o---------------------------------------------|
||--10-10-10-10-10-10-10-10-10-10-10-10-10-10---|


 ------------------------------------------------------|                   3x
|-----------------------------|----------|-------------|
|-----------------------------|----------|---------o---|
|-----------------------------|----------|-------------|
|-----------------------------|-5--------|-5b6r--------|
|-----------------------------|-5--------|-5-------o---|
|-8-8-8-8-8-8-8-8-8-8-8-8-8-8-|-5--------|-5-----------|


   PM-----------------------------------------------------------------------|
|-------------------------------------------|-------------------------------|
|-------------------------------------------|-------------------------------|
|-------------------------------------------|-------------------------------|
|-------------------------------------------|-------------------------------|
|-------------------------------------------|-------------------------------|
|-10-10-10-10-10-10-10-10-10-10-10-10-10-10-|-8-8-8-8-8-8-8-8-8-8-8-8-8-8---|


 Riff 4                                               |Sorry, wasn't able to tab this!|
|-----------------|-----------------|-----------------|-------------------------------|
|-----------------|-----------------|-----------------|-------------------------------|
|-----------------|-----------------|-----------------|-------------------------------|
|-5--5--5-8-5-8-5-|-5--5--5-8-5-8-5-|-5--5--5-8-5-8-5-|-5--5--5-8-5-5-8-5-------------|
|-5--5--5-8-5-8-5-|-5--5--5-8-5-8-5-|-5--5--5-8-5-8-5-|-5--5--5-8-5-5-8-5-------------|
|-5--5--5-8-5-8-5-|-5--5--5-8-5-8-5-|-5--5--5-8-5-8-5-|-5--5--5-8-5-5-8-5-------------|


 Riff 5
||--------------------------|------------------|
||o-------------------------|------------------|
||--------------------------|------------------|
||--10-10-10-10-10-8---(8)--|-5-5-5--5-8-5-8-5-|
||o-10-10-10-10-10-8---(8)--|-5-5-5--5-8-5-8-5-|
||--10-10-10-10-10-8---(8)--|-5-5-5--5-8-5-8-5-|


 Riff 5
|-------------------------|-----------------|
|-------------------------|-----------------|
|-------------------------|-----------------|
|-10-10-10-10-10-8---(8)--|-5-5-5-5-8-5-8-5-|
|-10-10-10-10-10-8---(8)--|-5-5-5-5-8-5-8-5-|
|-10-10-10-10-10-8---(8)--|-5-5-5-5-8-5-8-5-|


 Riff 5
|-------------------------|-----------------|
|-------------------------|-----------------|
|-------------------------|-----------------|
|-10-10-10-10-10-8---(8)--|-5-5-5-5-8-5-8-5-|
|-10-10-10-10-10-8---(8)--|-5-5-5-5-8-5-8-5-|
|-10-10-10-10-10-8---(8)--|-5-5-5-5-8-5-8-5-|

 Riff 5 / a.e.     watch out!
|----------------------------|
|----------------------------|
|----------------------------|
|-10-10-10-10-10-8--8-8-8----|
|-10-10-10-10-10-8--8-8-8----|
|-10-10-10-10-10-8--8-8-8----|


 Riff 4
|-----------------|-----------------|-----------------|--------------------|
|-----------------|-----------------|-----------------|--------------------|
|-----------------|-----------------|-----------------|--------------------|
|-5--5--5-8-5-8-5-|-5--5--5-8-5-8-5-|-5--5--5-8-5-8-5-|-5--5--5-8-5-5-8-5--|
|-5--5--5-8-5-8-5-|-5--5--5-8-5-8-5-|-5--5--5-8-5-8-5-|-5--5--5-8-5-5-8-5--|
|-5--5--5-8-5-8-5-|-5--5--5-8-5-8-5-|-5--5--5-8-5-8-5-|-5--5--5-8-5-5-8-5--|


 Riff 2 - add5
  1.
|---------------|--------------|---------------|----------------|
|---------------|--------------|---------------|----------------|
|---------------|--------------|---------------|----------------|
|-5-8-10--8-5-3-|-5-8-5----(5)-|-5-8-10--8-5-3-|-5-8b9-5----(5)-|
|-5-8-10--8-5-3-|-5-8-5----(5)-|-5-8-10--8-5-3-|-5-8b9-5----(5)-|
|-5-8-10--8-5-3-|-5-8-5----(5)-|-5-8-10--8-5-3-|-5-8b9-5----(5)-|


|---------------|----------------|---------------|-----------------||
|---------------|----------------|---------------|----------------o||
|---------------|----------------|---------------|-----------------||
|-10-8-5--3-5-3-|-8b9r8b9-6----3-|-5-8-10--8-5-3-|-5-8-5----(5)----||
|-10-8-5--3-5-3-|-8b9r8b9-6----3-|-5-8-10--8-5-3-|-5-8-5----(5)---o||
|-10-8-5--3-5-3-|-8b9r8b9-6----3-|-5-8-10--8-5-3-|-5-8-5----(5)----||


  2.
|-------------|
|-------------|
|-------------|
|-3------8----|
|-3------8----|
|-3------8----|


 Riff 1
|---------------------------|------------------------|
|---------------------------|------------------------|
|---------------------------|------------------------|
|-11-11-11-10-5-8-10-5-8-10-|-11-11-11-10-8-5----(5)-|
|-11-11-11-10-5-8-10-5-8-10-|-11-11-11-10-8-5----(5)-|
|-11-11-11-10-5-8-10-5-8-10-|-11-11-11-10-8-5----(5)-|


|---------------------------|-----------------------------|
|---------------------------|-----------------------------|
|---------------------------|-----------------------------|
|-11-11-11-10-5-8-10-5-8-10-|-11-11-11-10-8-10b11----(10)-|
|-11-11-11-10-5-8-10-5-8-10-|-11-11-11-10-8-10b11----(10)-|
|-11-11-11-10-5-8-10-5-8-10-|-11-11-11-10-8-10b11----(10)-|


|---------------------------|------------------------|
|---------------------------|------------------------|
|---------------------------|------------------------|
|-11-11-11-10-5-8-10-5-8-10-|-11-11-11-10-8-5----(5)-|
|-11-11-11-10-5-8-10-5-8-10-|-11-11-11-10-8-5----(5)-|
|-11-11-11-10-5-8-10-5-8-10-|-11-11-11-10-8-5----(5)-|


|-------------------------------|----------------|
|-------------------------------|----------------|
|-------------------------------|----------------|
|-11-11-11-10-5-8-(8)-(8)-(8)-5-|-8-8-8-8-8-5----|
|-11-11-11-10-5-8-(8)-(8)-(8)-5-|-8-8-8-8-8-5----|
|-11-11-11-10-5-8-(8)-(8)-(8)-5-|-8-8-8-8-8-5----|


 Outro
|---------------|--------------*|
|---------------|--------------*|
|---------------|--------------*|
|-5-8-10--8-5-3-|-5-8-5----(5)-*|
|-5-8-10--8-5-3-|-5-8-5----(5)-*|
|-5-8-10--8-5-3-|-5-8-5----(5)-*|

Order as standing above:

 Intro
 Riff 1
 Riff 2
 Riff 1
 Riff 2 - altered ending
 Riff 2 - add5
 Riff 3
 Riff 3
 Riff 3
 Riff 3 (just first two measures)
 Riff 4
 Riff 4
 Riff 4
 Riff 4 - altered rhythm or whatever - wasn't able to tab this... :(
 Riff 5
 Riff 4
 Riff 5
 Riff 4
 Riff 5
 Riff 4
 Riff 5 - altered ending
 Riff 4
 Riff 4
 Riff 4
 Riff 4 - again altered something - sorry... :(
 Riff 2 - add5
 Riff 5
 Riff 4
 Riff 5
 Riff 4
 Riff 5
 Riff 4
 Riff 5 - altered ending
 Riff 4
 Riff 4
 Riff 4
 Riff 4 - again altered something - sorry... :(
 Fill In
 Riff 1
 Outro

"Wow - that's a lot!" Don't worry: once you got the riffs, it's quite easy!

Comment to this tab: I unfortunately never saw them live - don't know if this is, what 
used to play... But it's certainly at least a guess of how it was played :)
And please: Keep rocking Karma to Burn!
            
Hard to play? Try these video lessons and learn fast. | Correct




comments powered by Disqus
↑ Back to top | Tablatures and chords are parodies/interpretations of the original songs. You may use it for private study, scholarship, research or language learning purposes only