>
 >
Nine

Nine Guitar Tabs

Karma To Burn - Nine chords, tabs, tablatures, lyrics

Guitar lessons | Add/correct | Request | Top 50 tabs Artists:  A B C D E F G H I J K L M N O P Q R S T U V W X Y Z 0-9

Nine Guitar Tabs – Karma To Burn

CD, Sheet music, Poster

Do you like Nine? Share with your friends now
Tabs


tune 2 steps down
       
bass line   
Eb|--------------------------------------------|
Bb|--------------------------------------------|
F#|--------------------------------------------|
C#|---2--2-0----0-2-5------2-2-0---------------|
G#|-----------2-------------------2--1-2-1-----|
C#|-0-----------------0-0------------------3b--|

                     fdbk
Eb|-----------------------------------------|
Bb|-----------------------------------------|
F#|-----------------------------------------|
C#|-2---------(2)---------------------------|
G#|-2---------(2)---------------------------|
C#|-0---------(0)---------------------------|

Eb|------------|
Bb|------------|
F#|------------|
C#|------------|
G#|-7-8-7--5---|
C#|-5-6-5--3---|


Eb|---------------------------------------------|
Bb|--------------8b~~~--------------------------|
F#|-9-9-7--7-7-9-------9-9--9-9-7---------------|
C#|-0-0-0--9-0-0-------0-0--0-0-0-9-8-9-8-------|
G#|-------------------------------0-0-0-0-10~~~-|
C#|---------------------------------------------|

Eb|-------------------------------------------|
Bb|--------------11b~~~-----------------------|
F#|-9-9-7--7-7-9-------9-9--9-9-7-------------|
C#|-0-0-0--9-0-0-------0-0--0-0-0-9-----------|
G#|-------------------------------0--7-8-7--5-|
C#|----------------------------------5-6-5--3-|

Eb|---------------------------------------------|
Bb|--------------8b~~~--------------------------|
F#|-9-9-7--7-7-9-------9-9--9-9-7---------------|
C#|-0-0-0--9-0-0-------0-0--0-0-0-9-8-9-8-------|
G#|-------------------------------0-0-0-0-10~~~-|
C#|---------------------------------------------|

Eb|-------------------------------------------|
Bb|--------------11b~~~-----------------------|
F#|-9-9-7--7-7-9-------9-9--9-9-7-------------|
C#|-0-0-0--9-0-0-------0-0--0-0-0-9-----------|
G#|-------------------------------0--7-8-7--5-|
C#|----------------------------------5-6-5--3-|


Eb|-----------------------------------------|
Bb|-----------------------------------------|
F#|-----3-----------------------------------|
C#|-2---3-----------------------------------|
G#|-2---1-----------5p3------------5p3------|
C#|-0------0--0-0-0-----0--0-0-0-0-----5----|

Eb|-----------------------------------------|
Bb|-----------------------------------------|
F#|-----3-----------------------------------|
C#|-2---3-----------------------------------|
G#|-2---1-----------5p3------------5p3------|
C#|-0------0--0-0-0-----0--0-0-0-0-----5----|


Eb|-----------------------------------------|
Bb|-----------------------------------------|
F#|-5----7----------------------------------|
C#|-5----7----------------------------------|
G#|-3----5------------5p3------------5p3----|
C#|----------0--0-0-0-----0--0-0-0-0-----5--|

Eb|-----------------------------------------|
Bb|-----------------------------------------|
F#|-5----7----------------------------------|
C#|-5----7----------------------------------|
G#|-3----5------------5p3------------5p3----|
C#|----------0--0-0-0-----0--0-0-0-0-----5--|


Eb|---------------------------------|
Bb|---------------------------------|
F#|---------------------------------|
C#|---------------------------------|
G#|-----------5p3------------5p3----|
C#|--0--0-0-0-----0--0-0-0-0-----5--|

Eb|---------------------------------|
Bb|---------------------------------|
F#|---------------------------------|
C#|---------------------------------|
G#|-----------5p3------------5p3----|
C#|--0--0-0-0-----0--0-0-0-0-----5--|

Eb|---------------------------------|
Bb|---------------------------------|
F#|---------------------------------|
C#|---------------------------------|
G#|-----------5p3------------5p3----|
C#|--0--0-0-0-----0--0-0-0-0-----5--|

Eb|---------------------------------|
Bb|---------------------------------|
F#|---------------------------------|
C#|---------------------------------|
G#|-----------5p3------------5p3----|
C#|--0--0-0-0-----0--0-0-0-0-----5--|


Eb|-----------------------------------------|
Bb|-----------------------------------------|
F#|-----------------------------------------|
C#|-----------------------------------------|
G#|-5p3---5p3---5p3---5p3---5p3---5p3-5-----|
C#|-----0-----0-----0-----0-----0-----------|

Eb|---------------------------------------------|
Bb|--------------8b~~~--------------------------|
F#|-9-9-7--7-7-9-------9-9--9-9-7---------------|
C#|-0-0-0--9-0-0-------0-0--0-0-0-9-8-9-8-------|
G#|-------------------------------0-0-0-0-10~~~-|
C#|---------------------------------------------|

Eb|-------------------------------------------|
Bb|--------------11b~~~-----------------------|
F#|-9-9-7--7-7-9-------9-9--9-9-7-------------|
C#|-0-0-0--9-0-0-------0-0--0-0-0-9-----------|
G#|-------------------------------0--7-8-7--5-|
C#|----------------------------------5-6-5--3-|

Eb|---------------------------------------------|
Bb|--------------8b~~~--------------------------|
F#|-9-9-7--7-7-9-------9-9--9-9-7---------------|
C#|-0-0-0--9-0-0-------0-0--0-0-0-9-8-9-8-------|
G#|-------------------------------0-0-0-0-10~~~-|
C#|---------------------------------------------|

                          --------------------
Eb|----------------------/---------------------|
Bb|--------------11bf~~~/-11-11-11-11-11-11-11-|
F#|-9-9-7--7-7-9-------------------------------|
C#|-0-0-0--9-0-0-------------------------------|
G#|--------------------------------------------|
C#|--------------------------------------------|

Eb|-----------------------------------------|
Bb|-----------------------------------------|
F#|-----3-----------------------------------|
C#|-2---3-----------------------------------|
G#|-2---1-----------5p3------------5p3------|
C#|-0------0--0-0-0-----0--0-0-0-0-----5----|

Eb|-----------------------------------------|
Bb|-----------------------------------------|
F#|-----2-----------------------------------|
C#|-2---2-----------------------------------|
G#|-2---0-----------5p3------------5p3------|
C#|-0------0--0-0-0-----0--0-0-0-0-----5----|

Eb|-----------------------------------------|
Bb|-----------------------------------------|
F#|-5----7----------------------------------|
C#|-5----7----------------------------------|
G#|-3----5------------5p3------------5p3----|
C#|----------0--0-0-0-----0--0-0-0-0-----5--|

Eb|-----------------------------------------|
Bb|-----------------------------------------|
F#|-5----7----------------------------------|
C#|-5----7----------------------------------|
G#|-3----5------------5p3------------5p3----|
C#|----------0--0-0-0-----0--0-0-0-0-----5--|

Eb|---------------------------------|
Bb|---------------------------------|
F#|---------------------------------|
C#|---------------------------------|
G#|-----------5p3------------5p3----|
C#|--0--0-0-0-----0--0-0-0-0-----5--|

Eb|---------------------------------|
Bb|---------------------------------|
F#|---------------------------------|
C#|---------------------------------|
G#|-----------5p3------------5p3----|
C#|--0--0-0-0-----0--0-0-0-0-----5--|

Eb|---------------------------------|
Bb|---------------------------------|
F#|---------------------------------|
C#|---------------------------------|
G#|-----------5p3------------5p3----|
C#|--0--0-0-0-----0--0-0-0-0-----5--|

Eb|---------------------------------|
Bb|---------------------------------|
F#|---------------------------------|
C#|---------------------------------|
G#|-----------5p3------------5p3----|
C#|--0--0-0-0-----0--0-0-0-0-----5--|


Eb|-----------------------------------------|
Bb|-----------------------------------------|
F#|-----------------------------------------|
C#|-----------------------------------------|
G#|-5p3---5p3---5p3---5p3---5p3---5p3-5-----|
C#|-----0-----0-----0-----0-----0-----------|

Eb|--------------------------------------------------------------------------------------|
Bb|--------------------------------------------------------------------------------------|
F#|-/15-15-15-15-15-15-15-15-15-15-------------------------------------------------------|
C#|--------------------------------14-14-14-14-14-14-14-14-14-14-17-17-17-17-17-17-17-17-|
G#|--------------------------------------------------------------------------------------|
C#|--------------------------------------------------------------------------------------|

Eb|-------------------------------|
Bb|-------------------------------|
F#|-------------------------------|
C#|-19-19-19-19-19-19-19-19-19-19-|
G#|-------------------------------|
C#|-------------------------------|

Eb|--------------------------------------------------------------------------------------|
Bb|--------------------------------------------------------------------------------------|
F#|-/15-15-15-15-15-15-15-15-15-15-------------------------------------------------------|
C#|--------------------------------14-14-14-14-14-14-14-14-14-14-17-17-17-17-17-17-17-17-|
G#|--------------------------------------------------------------------------------------|
C#|--------------------------------------------------------------------------------------|

Eb|--------------------------------------------------------------------------------------|
Bb|--------------------------------------------------------------------------------------|
F#|-/15-15-15-15-15-15-15-15-15-15-------------------------------------------------------|
C#|--------------------------------14-14-14-14-14-14-14-14-14-14-17-17-17-17-17-17-17-17-|
G#|--------------------------------------------------------------------------------------|
C#|--------------------------------------------------------------------------------------|

Eb|-------------------------------|
Bb|-------------------------------|
F#|-------------------------------|
C#|-19-19-19-19-19-19-19-19-19-19-|
G#|-------------------------------|
C#|-------------------------------|

Eb|--------------------------------------------------------------------------------------|
Bb|--------------------------------------------------------------------------------------|
F#|-/15-15-15-15-15-15-15-15-15-15-------------------------------------------------------|
C#|--------------------------------14-14-14-14-14-14-14-14-14-14-17-17-17-17-17-17-17-17-|
G#|--------------------------------------------------------------------------------------|
C#|--------------------------------------------------------------------------------------|


Eb|------------------------------------------------|
Bb|------------------------------------------------|
F#|------------------------------------------------|
C#|-3-3-3-3-3--------------------------------------|
G#|-1-1-1-1-1--2-2-2-2-2--5-----8-----7-----3--8-7-|
C#|------------0-0-0-0-0--3-0-0-6-0-0-5-----1--6-5-|


Eb|------------------------------------------------|
Bb|------------------------------------------------|
F#|------------------------------------------------|
C#|-3-3-3-3-3--------------------------------------|
G#|-1-1-1-1-1--2-2-2-2-2--5-----8-----7-----3--8-7-|
C#|------------0-0-0-0-0--3-0-0-6-0-0-5-----1--6-5-|


Eb|------------------------------------------------|
Bb|------------------------------------------------|
F#|------------------------------------------------|
C#|-3-3-3-3-3--------------------------------------|
G#|-1-1-1-1-1--2-2-2-2-2--5-----8-----7-----3--8-7-|
C#|------------0-0-0-0-0--3-0-0-6-0-0-5-----1--6-5-|


Eb|------------------------------------------------|
Bb|------------------------------------------------|
F#|------------------------------------------------|
C#|-3-3-3-3-3--------------------------------------|
G#|-1-1-1-1-1--2-2-2-2-2--5-----8-----7-----3--8-7-|
C#|------------0-0-0-0-0--3-0-0-6-0-0-5-----1--6-5-|

Eb|-----------------------------------------|
Bb|-----------------------------------------|
F#|-----------------------------------------|
C#|-2---------(2)---------------------------|
G#|-2---------(2)---------------------------|
C#|-0---------(0)---------------------------|

bass solo

Eb|-----------------------------------------|
Bb|-----------------------------------------|
F#|-/16~~~~~~~----16~~~~~--16bf-------------|
C#|-----------------------------------------|
G#|-----------------------------------------|
C#|-----------------------------------------|

                                      pitch g fdbk
Eb|-----------------------------------------------|
Bb|-----------------------------------------------|
F#|-/16~~~~~~~----16~~~~~--12~~~~-----12ah--------|
C#|-----------------------------------------------|
G#|-----------------------------------------------|
C#|-----------------------------------------------|


Eb|--------------------------------------------|
Bb|--------------------------------------------|
F#|--------------------------------------------|
C#|--------------------------------------------|
G#|-7-7-7-7-7-7-7-9-9-9-9-9-9-9-10-10-10-10-10-|
C#|-5-5-5-5-5-5-5-7-7-7-7-7-7-7-8--8--8--8--8--|


Eb|--------------------------|
Bb|--------------------------|
F#|--------------------------|
C#|-2----2--2-2---5-5-5-5-5--|
G#|-2----2--2-2---3-3-3-3-3--|
C#|-0----0--0-0--------------|

Eb|--------------------------|
Bb|--------------------------|
F#|--------------------------|
C#|-2----2--2-2---5-5-5-5-5--|
G#|-2----2--2-2---3-3-3-3-3--|
C#|-0----0--0-0--------------|


Eb|--------------------------------------------|
Bb|--------------------------------------------|
F#|--------------------------------------------|
C#|--------------------------------------------|
G#|-7-7-7-7-7-7-7-9-9-9-9-9-9-9-10-10-10-10-10-|
C#|-5-5-5-5-5-5-5-7-7-7-7-7-7-7-8--8--8--8--8--|


Eb|--------------------------|
Bb|--------------------------|
F#|--------------------------|
C#|-2----2--2-2---5-5-5-5-5--|
G#|-2----2--2-2---3-3-3-3-3--|
C#|-0----0--0-0--------------|

Eb|--------------------------|
Bb|--------------------------|
F#|--------------------------|
C#|-2----2--2-2---3-3-3-3-3--|
G#|-2----2--2-2---1-1-1-1-1--|
C#|-0----0--0-0--------------|

Eb|-----------------------------------------|
Bb|-----------------------------------------|
F#|-----3-----------------------------------|
C#|-2---3-----------------------------------|
G#|-2---1-----------5p3------------5p3------|
C#|-0------0--0-0-0-----0--0-0-0-0-----5----|

Eb|-----------------------------------------|
Bb|-----------------------------------------|
F#|-----3-----------------------------------|
C#|-2---3-----------------------------------|
G#|-2---1-----------5p3------------5p3------|
C#|-0------0--0-0-0-----0--0-0-0-0-----5----|


Eb|-----------------------------------------|
Bb|-----------------------------------------|
F#|-5----7----------------------------------|
C#|-5----7----------------------------------|
G#|-3----5------------5p3------------5p3----|
C#|----------0--0-0-0-----0--0-0-0-0-----5--|

Eb|-----------------------------------------|
Bb|-----------------------------------------|
F#|-5----7----------------------------------|
C#|-5----7----------------------------------|
G#|-3----5------------5p3------------5p3----|
C#|----------0--0-0-0-----0--0-0-0-0-----5--|


Eb|---------------------------------|
Bb|---------------------------------|
F#|---------------------------------|
C#|---------------------------------|
G#|-----------5p3------------5p3----|
C#|--0--0-0-0-----0--0-0-0-0-----5--|

Eb|---------------------------------|
Bb|---------------------------------|
F#|---------------------------------|
C#|---------------------------------|
G#|-----------5p3------------5p3----|
C#|--0--0-0-0-----0--0-0-0-0-----5--|

Eb|---------------------------------|
Bb|---------------------------------|
F#|---------------------------------|
C#|---------------------------------|
G#|-----------5p3------------5p3----|
C#|--0--0-0-0-----0--0-0-0-0-----5--|

Eb|---------------------------------|
Bb|---------------------------------|
F#|---------------------------------|
C#|---------------------------------|
G#|-----------5p3------------5p3----|
C#|--0--0-0-0-----0--0-0-0-0-----5--|


Eb|-----------------------------------------|
Bb|-----------------------------------------|
F#|-----------------------------------------|
C#|-----------------------------------------|
G#|-5p3---5p3---5p3---5p3---5p3---5p3-5-----|
C#|-----0-----0-----0-----0-----0-----------|

                       slide fingers
Eb|-----------------------------------------|
Bb|-----------------------------------------|
F#|-----------------------------------------|
C#|-2----------5--------x/------------------|
G#|-2----------5--------x/------------------|
C#|-0----------3--------x/------------------|





Comments


Popular Karma To Burn tabs & chords
Bobbi, Bobbi, Bobbi - I'm Not God Tabs
Ma Petite Mort Tabs
One Intro Tabs
Thirty Two Tabs
Thirty Two 1 Tabs
Twenty Tabs
Twenty 1 Tabs
Twenty Eight Tabs
Twenty Nine Tabs
Twenty Nine 1 Tabs


Song lyrics



↑ Back to top | Tablatures and chords are parodies/interpretations of the original songs. You may use it for private study, scholarship, research or language learning purposes only
© 2014 AZChords.com Contact us | Privacy policy | DMCA | Add/correct tabs | Request tabs | Top 50 tabs