>
 >
Ma Petite Mort

Ma Petite Mort Guitar Tabs

Karma To Burn - Ma Petite Mort chords, tabs, tablatures, lyrics

Guitar lessons | Add/correct | Request | Top 50 tabs Artists:  A B C D E F G H I J K L M N O P Q R S T U V W X Y Z 0-9

Ma Petite Mort Guitar Tabs – Karma To Burn

CD, Sheet music, Poster

Do you like Ma Petite Mort? Share with your friends now
Tabs


Karma To Burn - Ma Petite Mort

Tuning - 'Dropped D' - D A D G B E

[00:19]

|--------------------------------------------------------------------------|
|--------------------------------------------------------------------------|
|--------------------------------------------------------------------------|
|------------------------------3---------------------------3h5-5b6r5-------|
|-0--0-0--3s5--0-0--0-0-0--3h5----0--0-0--3s5--0-0--0-0-0------------------|
|-0--0-0--3s5--0-0--0-0-0---------0--0-0--3s5--0-0--0-0-0------------------|
 pm.....       ..........         ......       ..........

|--------------------------------------------------------------------------|
|--------------------------------------------------------------------------|
|--------------------------------------------------------------------------|
|------------------------------3-------------------------------------------|
|-0--0-0--3s5--0-0--0-0-0--3h5----0--0-0--3s5--0-0--0-3s5-6p5-3------------|
|-0--0-0--3s5--0-0--0-0-0---------0--0-0--3s5--0-0--0-3s5-6p5-3------------|
 pm.....       ..........         ......

[00:40]

|--------------------------------------------------------------------------|
|--------------------------------------------------------------------------|
|-9-9-9--10-10--5--5-5-5-5-5-----------------------------------------------|
|-x-x-x---x--x--x--x-x-x-x-x-----------------------------------------------|
|-7-7-7---8--8--3--3-3-3-3-3--0--5p0-3p0-----------------------------------|
|-----------------------------0----------0--5b-5b--------------------------|


|--------------------------------------------------------------------------|
|--------------------------------------------------------------------------|
|-9-9-9--10-10s\--5-5-5-5-5-5s/-7--7-7-7-7-7-7-7-x-7-7-7-7-7-7-7-x---------|
|-x-x-x---x--x----x-x-x-x-x-x---x--x-x-x-x-x-x-x-x-x-x-x-x-x-x-x-x---------|
|-7-7-7---8--8s\--3-3-3-3-3-3s/-5--5-5-5-5-5-5-5-x-5-5-5-5-5-5-5-x---------|
|----------------------------------0-0-0-0-0-0-0-x-0-0-0-0-0-0-0-x---------|

[00:58]

|--------------------------------------------------------------------------|
|--------------------------------------------------------------------------|
|-7-7-7-7-7-7-x-x-7-7-7-7-7-7-x-x-7-7-7-7-7-7-7-7--7p5p0-7p5p0-7b8r7-------|
|-x-x-x-x-x-x-x-x-x-x-x-x-x-x-x-x-x-x-x-x-x-x-x-x--------------------------|
|-5-5-5-5-5-5-x-x-5-5-5-5-5-5-x-x-5-5-5-5-5-5-5-5--------------------------|
|-0-0-0-0-0-0-x-x-0-0-0-0-0-0-x-x-0-0-0-0-0-0-0-0--------------------------|

|--------------------------------------------------------------------------|
|--------------------------------------------------------------------------|
|-7-7-7-7-7-7-x-x-7-7-7-7-7-7-x-x-7-7-7-7-7-7-7----------------------------|
|-x-x-x-x-x-x-x-x-x-x-x-x-x-x-x-x-x-x-x-x-x-x-x----------------------------|
|-5-5-5-5-5-5-x-x-5-5-5-5-5-5-x-x-5-5-5-5-5-5-5--0--6--5--3p0-3------------|
|-0-0-0-0-0-0-x-x-0-0-0-0-0-0-x-x-0-0-0-0-0-0-0--0--6--5--3p0-3------------|

[02:19]

|--------------------------------------------------------------------------|
|--------------------------------------------------------------------------|
|-------------------5h7-------5--------------------------------------------|
|-----------------5-----5h7-5---7------------------------------------------|
|-0--------------------------------8--8-8--8-8-8-8--8-8--8--8-8-8-8--------|
|-0------------------------------------------------------------------------|

[02:54]
                                                                        x2
|-----------------|-------------------------------------------------------||
|-----------------|-------------------------------------------------------||
|-12-12-12-12-12~-|-10p7-10p7-10-10s12----------------10p7-10p7-10-10s11~-||
|-12-12-12-12-12~-|--------------------10-10-10-10-12---------------------||
|-----------------|-------------------------------------------------------||
|-----------------|-------------------------------------------------------||


|--------------------------------------------------------------------------|
|-11-11-11--13-13----------------------------------------------------------|
|-----------------12-12--12-12-12-----------10-10~-------------------------|
|----------------------------------10-10-10--------------------------------|
|--------------------------------------------------------------------------|
|--------------------------------------------------------------------------|

|--------------------------------------------------------------------------|
|--------------------------------------------------------------------------|
|-10p7-10p7-10-10s12-------------------------------------------------------|
|--------------------10-10-10-10-10-10p7-10p7-10-10s12~--------------------|
|--------------------------------------------------------------------------|
|--------------------------------------------------------------------------|

[03:45]

|-------------------------------------------|
|-------------------------------------------|
|-------------10----------------------10~---|
|--------------x--------------10h12---------|
|-6s\-0--0-0-0-8-0-0--0-0-0-----------------|
|-6s\-0--0-0-0---0-0--0-0-0-----------------|

|-------------------------------------------|
|-------------------------------------------|
|---------10------------10h12-12b13r12------|
|----------x--------------------------------|
|-0--0-0-0-8-0-0--0-0-0---------------------|
|-0--0-0-0---0-0--0-0-0---------------------|

|-------------------------------------------|
|-------------------------------------------|
|---------10----------------------10~-------|
|----------x--------------10h12-------------|
|-0--0-0-0-8-0-0--0-0-0---------------------|
|-0--0-0-0---0-0--0-0-0---------------------|


|-------------------------------------------|
|-------------------------------------------|
|---------10--------------------------------|
|----------x--------------------------------|
|-0--0-0-0-8-0-0---5-6----------------------|
|-0--0-0-0---0-0---5-6----------------------|

[04:04]

|-------------------------------------------|
|-------------------------------------------|
|---------10--------------------------------|
|----------x--------------------------------|
|-0--0-0-0-8-0-0----3s5-6p5-3-0-------------|
|-0--0-0-0---0-0--0-3s5-6p5-3-0-------------|



Tablature Key:

|------------- hammer on to 3             |-------------
|--2h3p2------ then pull off              |---x-x------- muffled string
|------------- back to 2                  |---x-x-------


|------------- pluck 5 then               |-------------
|--5b7r5------ bend up until              |------------- palm muting
|------------- pitch is equal             |-------------
               to 7, release to 5          pm..........


|------------- slide along string in      |------------- slide to second
|------4s->--- direction of arrow         |---5-s-7----- note from first
|-------------                            |-------------


|-------------
|------5~~~~~- string vibrato
|-------------





Comments


Popular Karma To Burn tabs & chords
Bobbi, Bobbi, Bobbi - I'm Not God Tabs
Forty-three Tabs
One Intro Tabs
Thirty Six Tabs
Thirty Two Tabs
Thirty Two 1 Tabs
Twenty 1 Tabs
Twenty 2 Tabs
Twenty Eight Tabs
Twenty Nine 1 Tabs


Song lyrics



↑ Back to top | Tablatures and chords are parodies/interpretations of the original songs. You may use it for private study, scholarship, research or language learning purposes only
© 2014 AZChords.com Contact us | Privacy policy | DMCA | Add/correct tabs | Request tabs | Top 50 tabs