» » »

30 Tabs (ver.1)

Artists:  A B C D E F G H I J K L M N O P Q R S T U V W X Y Z # 

30 Tabs (ver.1)

Karma To Burn
Rating:
0/5 (0 votes)

Hard to play? Try these video lessons and learn fast.
                KARMA TO BURN - THIRTY
dropped d



Intro: clean
--------------------------------------------------
--------------------------------------------------
--------------------------------------------------
22-222-222-2233322-222-222-2255522-222-222-2288822
22-222-222-2233322-222-222-2255522-222-222-2288822
22-222-222-2233322-222-222-2255522-222-222-2288822

Verse A:     
2232-252-232320-2232-252-232320-2232-252-232320-22-222-222-22000     
2232-252-232320-2232-252-232320-2232-252-232320-22-222-222-22000
2232-252-232320-2232-252-232320-2232-252-232320-22-222-222-22000

Verse B:
757-----5--3--0-202---0-3--2--0--757-----5--3--0-22-222-222-2220
757-----5--3--0-202---0-3--2--0--757-----5--3--0-22-222-222-2220
757-----5--3--0-202---0-3--2--0--757-----5--3--0-22-222-222-2220

-------------------------------------------------
-------------------------------------------------
-------------------------------------------------
757-----5--3--0-202---0-3--2--0--757-----5--3--0-
757-----5--3--0-202---0-3--2--0--757-----5--3--0-
757-----5--3--0-202---0-3--2--0--757-----5--3--0-

Bridge A:
--------------------------------------------------     
--------------------------------------------------      
--------------------------------------------------     
22-222-222-2233322-222-222-2255522-222-222-2288822      
22-222-222-2233322-222-222-2255522-222-222-2288822   
22-222-222-2233322-222-222-2255522-222-222-2288822
      

Fill:
22-222-222-2233322-222-222-2255522-222-222-2288888888888888888881010101010101010
22-222-222-2233322-222-222-2255522-222-222-2288888888888888888881010101010101010
22-222-222-2233322-222-222-2255522-222-222-2288888888888888888881010101010101010

------------------------------------
------------------------------------
------------------------------------
2222222222222222222222222222-12\----
2222222222222222222222222222-12\----
2222222222222222222222222222-12\----









Chorus:
--2---2---2---2---5---5---5---5---3---3---3---0-2002002--0202-0-
----------------------------------------------0-2002002--0202-0-
2---2---2---2---5---5---5---5---3---3---3---3-0-2002002--0202-0-

--2---2---2---2---8---8---8---8---7---7---7---3-2002002--0202-0-
----------------------------------------------3-2002002--0202-0-
-2---2---2---2---8---8---8---8---7---7---7--7-3-2002002--0202-0-




Bridge B:
------------------------------------
------------------------------------
------------------------------------
2002002--0202-0-2002002--0202-0--22-
2002002--0202-0-2002002--0202-0--22-
2002002--0202-0-2002002--0202-0--22-

Interlude
---------------------------------------
---------------------------------------
---------------------------------------
22---555---888--888888...1010101010...-
22---555---888--888888...1010101010...-
22---555---888--888888...1010101010...-
     
End:
---------
---------
---------
20020022-
20020022-
20020022-

Intro   
Pause
Verse A x2
Verse B
Bridge A
Pause
Verse A x2
Verse B
Fill
Chorus x2 
Bridge B
Pause
Verse A x2
Interlude 
Bridge A
Pause
End
            
Hard to play? Try these video lessons and learn fast. | Correct




comments powered by Disqus
↑ Back to top | Tablatures and chords are parodies/interpretations of the original songs. You may use it for private study, scholarship, research or language learning purposes only