» » »

Kasandra Tabs (ver.1)

Artists:  A B C D E F G H I J K L M N O P Q R S T U V W X Y Z # 

Kasandra Tabs (ver.1)

Karma
Rating:
0/5 (0 votes)

Hard to play? Try these video lessons and learn fast.
                e------------------------------------------------------------------
b------------------------------------------------------------------
g------------------------------------------------------------------
d--99-77-55-44-----------------------------------------------------
a--xx-xx-xx-xx-----------------------------------------------------
E--77-55-33-22-----------------------------------------------------

chorus

e------------------------------------------------------------------
b------------------------------------------------------------------
g------------------------------------------------------------------
d--2222----444-----------------------------------------------------
a--2222----444-----------------------------------------------------
E--0000----222-----------------------------------------------------

bridge

e------------------------------------------------------------------
b------------------------------------------------------------------
g------------------------------------------------------------------
d--99-77-55-44-----------------------------------------------------
a--99-77-55-44-----------------------------------------------------
E--77-55-33-22-----------------------------------------------------
---p.m p.m p.m----------------------------------------------------------------
            
Hard to play? Try these video lessons and learn fast. | Correct




comments powered by Disqus
↑ Back to top | Tablatures and chords are parodies/interpretations of the original songs. You may use it for private study, scholarship, research or language learning purposes only