» » »

Follow My Directions Tabs (ver.1)

Artists:  A B C D E F G H I J K L M N O P Q R S T U V W X Y Z # 

Follow My Directions Tabs (ver.1)

Karma
Rating:
0/5 (0 votes)

Hard to play? Try these video lessons and learn fast.
                intro verse

e------------------------------------------------------------------
b------------------------------------------------------------------
g-----77----77-----------------------------------------------------
d--5--77-77-77-----------------------------------------------------
a--5--55-77-55-----------------------------------------------------
E--3-----55--------------------------------------------------------

chorus

e------------------------------------------------------------------
b------------------------------------------------------------------
g-55555555--777777777----------------------------------------------
d-55555555--777777777--55555555--777777777-------------------------
a-33333333--555555555--55555555--777777777-------------------------
E----------------------33333333--555555555-------------------------


KARMA!!!!!!!!!!!!!!!!!!!!!!!!!!!!!!!!!!!!!!!!!!!!!!!!!!!!!!!!

there the best band in the world!!!
            
Hard to play? Try these video lessons and learn fast. | Correct




comments powered by Disqus
↑ Back to top | Tablatures and chords are parodies/interpretations of the original songs. You may use it for private study, scholarship, research or language learning purposes only