» » »

Karlzen Mary, Dressed In White Tabs (ver.1)

Artists:  A B C D E F G H I J K L M N O P Q R S T U V W X Y Z # 

Dressed In White Tabs (ver.1)

Karlzen Mary Tabs
Rating:
0/5 (0 votes)
Hard to play? Try these video lessons and learn fast.
                DRESSED IN WHITE (Mary Karlzen)
-------------------------------
Em  Em  Em  Em  D  D  D  D  Em  Em  Em  Em  D  D  D  Em
[intro]
Em  Em  Em  Em  D  D  D  D  Em  Em  Em  Em  D  D  D  Em
[intro]
 
Em         Em                  D     D
  When you coming back to this town?
Em         Em                  D     D
  I lie in wait, I put my ear to the ground
Em              Em               D         D
  This world is much too big for one like you
Em     Em                   D         D
  Come back to the girl who loves you
C         C         D        D
  On your mind do I weigh so light?
C            C            D     D
  Till you return I'll be here, dressed in
Em    Em   D   D          Em    Em   D   D
white,         dressed in white
 
Up to the altar (?) since you've been away
This is no longer just a place to kneel and pray
In this world can there be no faith
In my loneliness I'm justing saving grace (?)
On your mind do I weigh so light?
Till you return I'll be here, dressed in white
Dressed in white
 
[violin solo, same chords]
 
I keep your letters neatly tucked away
Sit by my window so patiently
In this world there's just one good night
Blow out the candle, turn out the light
On your mind do I weigh so light?
Till you return I'll be here, dressed in white
Dressed in white
I'll be dressed in white, dressed in white
 
[fade on Em Em D D]
 
 
 
 
 
[This is the violin intro arranged for guitar.  (I only did the top
 three strings to save space.)]
 
E 7-------787-5---|7---------------|7-------787-5---|10--7-----------|
B 5---------------|--------5-------|----------------|--------10--8---|
G ----------------|----------------|----------------|----------------|
  ^ . ^ . ^ . ^ .  ^ . ^ . ^ . ^ .  ^ . ^ . ^ . ^ .  ^ . ^ . ^ . ^ .
 
 
E --------5-------|7-------5-------|--------5-------|10--7-----------|
B 7=5-------------|----------------|7=5---------7---|--------10--7---|
G ----7-------7---|----7-------7---|----7-----------|----------------|
  ^ . ^ . ^ . ^ .  ^ . ^ . ^ . ^ .  ^ . ^ . ^ . ^ .  ^ . ^ . ^ . ^ .
 
 
E 7-------787-5---|7---------------|7-------787-5---|7---9---10--12--|
B 5---------------|--------5-------|----------------|----------------|
G ----------------|----------------|----------------|----------------|
  ^ . ^ . ^ . ^ .  ^ . ^ . ^ . ^ .  ^ . ^ . ^ . ^ .  ^ . ^ . ^ . ^ .
 
 
E 17-15-14----15-14-12----|10--7-----------|----------------|7-------|
B ------------------------|--------10--7---|----5---7=5-----|5-------|
G ------------------------|----------------|7-----------7---|--------|
  ^  .  ^  .  ^  .  ^  .   ^ . ^ . ^ . ^ .  ^ . ^ . ^ . ^ .  ^.^.^.^.
            

comments powered by Disqus
↑ Back to top | Karlzen Mary Tabs for Dressed In White. Lyrics for acoustic guitar and electric guitar. Tablatures and chords are parodies/interpretations of the original songs. You may use it for private study, scholarship, research or language learning purposes only