» » »

Deux Lampadaires Bass tabs (ver.1)

Artists:  A B C D E F G H I J K L M N O P Q R S T U V W X Y Z # 

Deux Lampadaires Bass tabs (ver.1)

Karkwa
Rating:
0/5 (0 votes)

Hard to play? Try these video lessons and learn fast.
                Deux lampadaires by [karkwa]
Bass played by Martin Lamontagne
Taken from the album Le volume du vent


Key;
D:10
G:15

Verse (Come in at 0:55, very softly for the first 3 notes)
G|--------|--------|--------|--------|--------|--------|--------|--------|--------|--------|
D|--------|--------|--------|--------|--------|--------|--------|--------|--------|--------|
A|--------|--------|--------|--------|--------|--------|--------|--------|--------|--------|
E|-----DDD|DDDDDDDD|88888888|88888888|77777777|77777777|88888888|88888888|GGGGGGGG|G-------|

Chorus (1:08)
G|--------|--------|--------|--------|--------|--------|--------|--------|
D|3-------|3-2-----|5--2----|7----0--|3-------|3-2-----|--------|--------|
A|------3-|--------|--------|--------|------3-|--------|3---3---|3-5-----|
E|--------|--------|--------|--------|--------|--------|--------|--------| Repeat once more

Verse 2 (Come in at 1:57)
G|--------|--------|--------|--------|--------|--------|--------|--------|--------|--------|
D|--------|--------|--------|--------|--------|--------|--------|--------|--------|--------|
A|--------|--------|--------|--------|--------|--------|--------|--------|--------|--------|
E|-----DDD|DDDDDDDD|88888888|88888888|77777777|77777777|88888888|88888888|GGGGGGGG|GGGGGGGG|

Chorus (2:12)

Chorus + Outro (2:23)
G|--------|--------|--------|--------|--------|--------|--------|--------|
D|3-------|3-2-----|5--2----|7----0--|3-------|3-2-----|--------|--------|
A|------3-|--------|--------|--------|------3-|--------|3---3---|3-5-----|
E|--------|--------|--------|--------|--------|--------|--------|--------|

G|--------|--------|--------|--------|--------|--------|--------|--------|--------|----------|
D|3-------|3-2-----|5--2----|7----0--|3-------|3-2-----|--------|--------|--------|­-----------|
A|------3-|--------|--------|--------|------3-|--------|33333333|33333333|33333333|33333333--|
E|--------|--------|--------|--------|--------|--------|--------|--------|--------|----------|

All right, so the timing during the chorus was a bit tricky to tab, so basically, just use
it as blueprints of what he plays, you can repeat the notes or just play them once, it's up
to you.
Don't hesitate to post comments or corrections, or ask for a French version of the tab.
As for the key, I use it to avoid confusion between 10 and 1-0 and so on.
Cheers
            
Hard to play? Try these video lessons and learn fast. | Correct




comments powered by Disqus
↑ Back to top | Tablatures and chords are parodies/interpretations of the original songs. You may use it for private study, scholarship, research or language learning purposes only