>
 >
Chapper Au Sort

Chapper Au Sort Bass Tabs

Karkwa - Chapper Au Sort chords, tabs, tablatures, lyrics

Guitar lessons | Add/correct | Request | Top 50 tabs Artists:  A B C D E F G H I J K L M N O P Q R S T U V W X Y Z 0-9

Chapper Au Sort Bass Tabs – Karkwa

CD, Sheet music, Poster

Do you like Chapper Au Sort? Share with your friends now
Bass Tabs
Échapper Au Sort by [karkwa]
Bass played by Martin Lamontagne
Taken from the album Le volume du vent

*There is an error in the tab's name, due to me (idiot) using an É (instead of a 
regular E) which, if course, wont fit in...

Key;
G:10
A:12

Intro (0:01-0:21)
G|------------|------------|------------|­------------|
D|------------|------------|------------|­------------|
A|GGGGGGAAAAAA|777777777777|GGGGGGAAAAAA|AAAAAAAAAAAA|
E|------------|------------|------------|------------| 2 times

No bass until 0:41

Verse (0:41-1:04)
G|------------|
D|------------|
A|------------|
E|----3/888888|

G|------------|------------|------------|­------------|
D|------------|------------|------------|­------------|
A|GGGGGGAAAAAA|777777777777|GGGGGGAAAAAA|AAAAAAAAAAAA|
E|------------|------------|------------|------------|

G|------------|------------|------------|------------|
D|------------|------------|------------|------------|
A|GGGGGGAAAAAA|777777777777|------------|------------|
E|------------|------------|777777777777|77777-------|

Breakdown (1:04-1:25)
G|------------|------------|
D|------------|------------|
A|----7-----5-|------------|
E|------------|----5-----8-| 3 times

G|------------|------------|
D|------------|------------|
A|7-7-7-5-5-5-|------------|
E|------------|5-5-5-5-5-5-|

Verse 2 (1:25-2:18)
G|------------|------------|------------|­------------|
D|------------|------------|------------|­------------|
A|GGGGGGAAAAAA|777777777777|GGGGGGAAAAAA|AAAAAAAAAAAA|
E|------------|------------|------------|------------| 2 times

G|------------|------------|------------|­------------|
D|------------|------------|------------|­------------|
A|GGGGGGAAAAAA|777777777777|GGGGGGAAAAAA|AAAAA-------|
E|------------|------------|------------|-----7888888|

G|------------|------------|------------|­------------|
D|------------|------------|------------|­------------|
A|GGGGGGAAAAAA|777777777777|GGGGGGAAAAAA|AAAAAAAAAAAA|
E|------------|------------|------------|------------|

G|------------|------------|------------|------------|
D|------------|------------|------------|------------|
A|GGGGGGAAAAAA|777777777777|------------|------------|
E|------------|------------|777777777777|77777-------|

Climax (2:18-3:32)
G|------------|------------|
D|------------|------------|
A|----7-----5-|------------|
E|------------|----5-----8-| 4 times

G|------------|------------|
D|------------|------------|
A|7-7-7-5-5-5-|------------|
E|------------|5-5-5-8-8-8-| 5 times

G|------------|------------|
D|------------|------------|
A|7-7-7-5-5-5-|------------|
E|------------|5-5-5-5-5-5-| Once

G|------------|------------|
D|------------|------------|
A|777777555555|------------|
E|------------|555555888888| Repeat 4 times

I usually don't play the breakdown and climax parts with a pick. And for those of you 
might be annoyed by the letters G and A (I use those letters to avoid confusion between 
and 10 or 1-2 and 12), this might clear things up;

Intro
G|------------------------|---------------------------|
D|------------------------|-----------­----------------|
A|101010101010121212121212|7-7-7-7-7-7-7-7-7-7-7-7----|
E|------------------------|---------------------------|

G|------------------------|---------------------------|
D|------------------------|-----------­----------------|
A|101010101010121212121212|121212121212121212121212---|
E|------------------------|---------------------------|

Have fun playing, vive Karkwa
Et pour ceux qui veulent une version en français, ça me ferait plaisir de vous 
vous n'avez qu'à m'écrire à l'adresse

Peace





Comments


Popular Karkwa tabs & chords
Deux Lampadaires Bass Tabs
Oublie Pas Bass Tabs
Vrai Bass Tabs
Le Pyromane Chords
Le Bon Sens Tabs
Le Pyromane Ukulele


Song lyrics



↑ Back to top | Tablatures and chords are parodies/interpretations of the original songs. You may use it for private study, scholarship, research or language learning purposes only
© 2014 AZChords.com Contact us | Privacy policy | DMCA | Add/correct tabs | Request tabs | Top 50 tabs