» » »

Kari Jobe, Revelation Song Bass tabs (ver.2)

Artists:  A B C D E F G H I J K L M N O P Q R S T U V W X Y Z # 

Revelation Song Bass tabs (ver.2)

Kari Jobe Tabs
 Rating:
4/5 (4 votes)
Revelation Song lessons Tabs too difficult? Try these video lessons and learn fast
1
                -------------------------------------------------------------------------------
	          Revelation Song - Extended Version (Bass)
-------------------------------------------------------------------------------


Tuning:Standard

Verse 1 (first time piano only)
G|---------------------------------------------------------|
D|-7/12------12\7------7-9-10------10\5----5/17-16-14-12---|
A|---------------------------------------------------------|
E|---------------------------------------------------------|

G|----------------------------------|
D|-12-14----------------------------|
A|-------12-----12-14-15----15\10---|
E|----------------------------------|

Chorus
G|------------------------------------------------------------------------|
D|------------------------------------------------------------------------|
A|------------------------------------------------------------------------|
E|-10--10--10|10|10---10\5--5--555---5-7-8--8--888---8\3--3--333---3/10---|x3

Verse2 
G|-----------------------------------------------------|
D|-7/12----14-12-9-7----7-9-10-----10/17---------------|
A|-----------------------------------------------------|
E|-----------------------------------------15-14-12-10-| <--**Lower Octive**

G|--------------------------------------------------------------|
D|--------------------------------------------------------------|
A|--------------------------------------------------------------|
E|-10--10|10|10--10\5--5--555--5-7-8--888--8\3-3-3-3-33333333/--|

Chorus
G|---------------------------------------------------------------------|
D|---------------------------------------------------------------------|
A|---------------------------------------------------------------------|
E|-10--10--10|10|10---10\5--5--555--5-7-8--8--888--8\3--3--333--3/10---|x3 then fade

Verse3 (after instrumental)
G|---------------------------------------|
D|---------------------------------------|
A|---------------------------------------|
E|-5/10----10-8-5----5-7-8---8\3----3/10-|x2

Instrumental
     A         F          C          G
G|---------------------------------------------|        ------|
D|---------------------------------------------|        ------|
A|------------------------3-3-333--------------|        ------|
E|--5-5-555----1-1-111---------------3-3-333---|x2      --10--| to Chorus x2


| /  slide up
| \  slide down
-------------------------------------------------------------------------------
            
Submit corrections

comments powered by Disqus
↑ Back to top | Kari Jobe Bass for Revelation Song. Lyrics for acoustic guitar and electric guitar. 1 Tablatures and chords are parodies/interpretations of the original songs. You may use it for private study, scholarship, research or language learning purposes only