» » »

Deurmekaar Tabs (ver.1)

Artists:  A B C D E F G H I J K L M N O P Q R S T U V W X Y Z # 

Deurmekaar Tabs (ver.1)

Karen Zoid
Rating:
5/5 (1 vote)

Hard to play? Try these video lessons and learn fast.
                =========================
Karen Zoid - Deurmekaar
=========================

die is die  regte tabs vir die song


-------------------------
SONG STRUCTURE IS AS VOLG
-------------------------

intro		- Guitar 1

vers 1		- Guitar 1

klein solo	- Guitar 1 / Guitar 2

vers 2		- Guitar 1

klein solo	- Guitar 1 / Guitar 2

koor		- Guitar 1

bridge		- Guitar 1

vers 1/ ksolo	- Guitar 1 / guitar 2

koor		- Guitar 1

koor		- Guitar 1 / Guitar 2

bridge		- Guitar 1 / Guitar 2


-----
intro
-----

e----0-----0-------0---------0-----------|
b----0-----0-------0---------0-----------|
g----9-----8-------9---------8-----------|
d----9-----9-------9---------9-----------|
a----7-----7-------7---------7-----------|
E----------------------------------------|

------
Vers 1
------

Guitar 1
--------
              l x2                l x2
e----0-----0--l-----0---------0---l-------|
b----0-----0--l-----0---------0---l-------|
g----9-----8--l-----2---------6---l-------|
d----9-----9--l-----2---------6---l-------|
a----7-----7--l-----0---------4---l-------|
E-------------l-------------------l-------|

ek het geloop sonder op te groet....

----------
Klein SOLO
----------

Guitar2
-------
                                                l x2
e---5h7p5h7p5h7p5h7p5h7--3h5p3h5p3h5p3h5p3h5-(1)l---------|
b-----------------------------------------------l---------|
g-----------------------------------------------l---------|
d-----------------------------------------------l---------|
a-----------------------------------------------l---------|
E-----------------------------------------------l---------|

Guitar 1
--------
               l x2
e----0-----0----|l
b----0-----0----|l
g----9-----8----|l
d----9-----9----|l
a----7-----7----|l
E---------------|l


------
Vers 2
------

Guitar 1
--------
              l x2                l x2
e----0-----0--l-----0---------0---l-------|
b----0-----0--l-----0---------0---l-------|
g----9-----8--l-----2---------4---l-------|
d----9-----9--l-----2---------4---l-------|
a----7-----7--l-----0---------2---l-------|
E-------------l-------------------l-------|

ek het geloop sonder op te groet....

Dan is daar n split sekond pause voor die klein solo waar sy net sing en niks speel nie

----------
Klein SOLO
----------

Guitar2
-------
                                                         l x2
e---5h7p5h7p5h7p5h7p5h7--3h5p3h5p3h5p3h5p3h5-(7--5--4--2)l---------|
b--------------------------------------------------------l---------|
g--------------------------------------------------------l---------|
d--------------------------------------------------------l---------|
a--------------------------------------------------------l---------|
E--------------------------------------------------------l---------|

Guitar 1
--------
               l x2
e----0-----0----|l
b----0-----0----|l
g----9-----8----|l
d----9-----9----|l
a----7-----7----|l
E---------------|l


onthou die koor begin dadlik na die klein solo.

----
koor
----
                            l x2
e---0------0------0------0--l--------|
b---0------0------0------0--l--------|
g---9------4------2------4--l--------|
d---9------4------2------4--l--------|
a---7------2------0------2--l--------|
E---------------------------l--------|

ek ken jou lyf ek ken jou taal........

die birdge begin ook dadlik na die koor

------
bridge
------

e---0-----0-----0----0----0-----0---------|
b---0-----0-----0----0----0-----0---------|
g---6-----4-----9----4----2-----4---------|
d---6-----4-----9----4----2-----4---------|
a---4-----2-----7----2----0-----2---------|
E-----------------------------------------|

die fight is verby die vuur is geblus...


let wel die laaste noot van die bridge speel jy net een keer en laat hom ring vir n 
sekond en dan is daar weer n pause

------
Vers 1
------

hierdie keer speel jy die klein solo saam met die vers.

Guitar 1
--------
              l x2                l x2
e----0-----0--l-----0---------0---l-------|
b----0-----0--l-----0---------0---l-------|
g----9-----8--l-----2---------6---l-------|
d----9-----9--l-----2---------6---l-------|
a----7-----7--l-----0---------4---l-------|
E-------------l-------------------l-------|

ek het geloop sonder om te groet..


Guitar2
-------
                                                l x2
e---5h7p5h7p5h7p5h7p5h7--3h5p3h5p3h5p3h5p3h5-(1)l---------|
b-----------------------------------------------l---------|
g-----------------------------------------------l---------|
d-----------------------------------------------l---------|
a-----------------------------------------------l---------|
E-----------------------------------------------l---------|


----
koor
----
                            l x2
e---0------0------0------0--l--------|
b---0------0------0------0--l--------|
g---9------4------2------4--l--------|
d---9------4------2------4--l--------|
a---7------2------0------2--l--------|
E---------------------------l--------|

ek ken jou lyf ek ken jou taal........


die koor gaan twee keer speel. let wel na die eerste keer gaan die drome inkom
die tweede keer speel al die guitare saam en gaan bos.


------
bridge
------

e---0-----0-----0----0----0-----0---------|
b---0-----0-----0----0----0-----0---------|
g---6-----4-----9----4----2-----4---------|
d---6-----4-----9----4----2-----4---------|
a---4-----2-----7----2----0-----2---------|
E-----------------------------------------|


Luister na die song en speel hom saam om die straming en die structure van die song reg te kan speel
let wel vers 1 en vers 2 verskil so kyk daar na ook

die song is lekker vir n nuwe band wat van afrikaanse musiek hou.
dit was my eerste tab. so as daar voute is vra ek onverskooning.

cheers en sterkte

=================================
=================================
            
Hard to play? Try these video lessons and learn fast. | Correct




comments powered by Disqus
↑ Back to top | Tablatures and chords are parodies/interpretations of the original songs. You may use it for private study, scholarship, research or language learning purposes only