>
 >
Water

Water Guitar Tabs

Karate - Water chords, tabs, tablatures, lyrics

Guitar lessons | Add/correct | Request | Top 50 tabs Artists:  A B C D E F G H I J K L M N O P Q R S T U V W X Y Z 0-9

Water Guitar Tabs – Karate

CD, Sheet music, Poster

Do you like Water? Share with your friends now
Tabs
Track: Water

Tuning: Standard

Intro

 e-----------------0---|
 B-------------0-------|
 G---------5-----5-----|
 D-------7---7---------| 2x
 A-----0---------------|
 E---------------------|

 Verse part A:

 e----------------0-------------0--------------0--------------0---|
 B------------0-------------6--------------0--------------0-------|
 G--------5-----5-------0-----0--------5-----5--------5-----5-----|
 D------7---7---------7---7----------6---6----------7---7---------| 2x
 A----0-------------5--------------7--------------0---------------|
 E----------------------------------------------------------------|

 Verse part B: "How long will it take you to want to go home?"

 E-----------------------0----------------------------------------|
 A---1---0-----------0-------1---0------------0----0--------------|
 D---2---1-------5-----5-----2---1--------5-----5--7--------------|
 G---2---0-----7---7---------2---0------6---6------6--------------| 1x
 B---0---2---0---------------0---2----7------------7--------------|
 e------(0)---------------------(0)-------------------------------|

 Back to verse part A on: "You were a sister, a daughter,..."

 e----------------0-------------0--------------0--------------0---|
 B------------0-------------6--------------0--------------0-------|
 G--------5-----5-------0-----0--------5-----5--------5-----5-----|
 D------7---7---------7---7----------6---6----------7---7---------| 1x
 A----0-------------5--------------7--------------0---------------|
 E----------------------------------------------------------------|

  < repeate 3x > "with stitches and holes"

 Solo: clean, soft

 E---------------------------------------|
 A--------------------------------5--6---|
 D----5-7/8/9/8/7-5---4---5---7---5--5---|
 G---7--------------7---7---7-----5--7---|
 B--0----------------------------(5)-5---|
 e---------------------------------------|

 E-----------------------------------------------------------------------|
 A-----------------------------------------------------------------------|
 D---------7-10-9-7------------------------------------------------------|
 G-----6-9----------10-9-7-6-5----------------5-------------5---5/9-9/10-|
 B---7------------------------------3---3-5/6---6\5-3---5/7---7----------|
 e------------------------------3h5---5---------------5------------------|

 E------------------------------------------------10--------------------|
 A--------------------------------------------8-6-9------9--------------|
 D-----------------5------------------7-------7-7-10----9---------------|
 G-------3---3-5/6---6\5-3---3-5/7------6-----6-6-9----7----------------|
 B---3h5---5---------------5--------------7---7-7-----7-----------------|
 e----------------------------------------------------------------------|

 E-------------------------------------------------------------------------|
 A-------------------------------------------------------------------------|
 D---7/8-7-5-7-4-5-7-9--10-9-7-4/5\4-/--14\12-12\7\8\7\5\4-5-7-9/11/13/16--|
 G-------------------------------------------------------------------------|
 B---5/6-5-3-5-2-3-5-7--8--7-5-2/3\2-/--12\10-10\5\6\5\3\2-3-5-7/9 /11/14--|
 e-------------------------------------------------------------------------|
fingerpick...


 E--------------------------------------------------------------------------------5--|
 A------------8-7-----8/10-8\7\5-----------------5-6-----8/9-8--------8-------5------|
 D---9h10p9\7-----9-7-7/9--------7---------------5---9/10------10-7/8--7--5-----5----|
 G---------------------------------5/7-------5---5----------------------7---7--------|
 B-------------------------------------5-6-7---7-------------------------------------|
 e-----------------------------------------------------------------------------------|

 E-------------5----7----------5--4------------|
 A---------5-----5--5------5------5------------|
 D-----5-----5---------5-----5----5------------|
 G---6---6---------------7---------------------|
 B---------------------------------------------|
 e---------------------------------------------|


 BACK to Verse part A, slight variation(noted as <...> ): "You got somewhere to be..."

 e----------------0-------------0--------------0------------------0---|
 B------------0-------------6--------------0-----0------------0-------|
 G--------5-----5-------0-----0--------5-----5-----5------5-----5-----|
 D------7---7---------7---7----------6---6--------------7---7---------| 2x
 A----0-------------5--------------7------------------0---------------|
 E--------------------------------------------------------------------|
                                               <...>


 Verse part B, slight variation: "Then your phone rings..."

 E---------------5---------------------------0--------------------|
 A---1---0---1---5-----------1---0----------(0)-------------------|
 D---2---1---2---5-----------2---1--------7-----------------------|
 G---2---0---2---7-----------2---0------6-------------------------| 1x
 B---0---2---0--(7)----------0---2----7---------------------------|
 e------(0)---------------------(0)-0-----------------------------|

 Back to verse part A, slight variation: "I'm coming down to get you,..."

 e-------------0-------------0--------------0--------------0------------------0---------------0-|
 B---------0-------------6--------------0--------------0-----0------------0--------------0----0-|
 G-----5-----5-------0-----0--------5-----5--------5-----5-----5------5-----5--------5-----5--5-|
 D---7---7---------7---7----------6---6----------7---7--------------7---7---------7----7------7-|1x
 A-0-------------5--------------7--------------0------------------0-------------0---0-----------|
 E----------------------------------------------------------------------------------------------|

                                               <      "...but the rain is coming faster"      >

 Chorus, Part A: "Water, sinks in..."

 no. of strokes is approximate. Listen to track

 E-----------------------------------------------|
 A--5-5------6-6------3-3-----6-6----(5)---3-----|
 D--5-5------5-5------4-4-----5-5-----5----4-----|
 G--7-7--x12-7-7--x12-5-5--x6-7-7--x6-7-x4-5-x4--|
 B--8-8------8-8------5-5-----8-8-----7----5-----|
 e------------------------------------5----3-----|

 Part B: "My pockets are..."

 E-----------------------------------------0----(5)-5----|
 A--5-5------3-3------6-6-----5-----3------1-----5----5--|
 D--5-5------4-4------5-5-----5-----4------2-----5-------|
 G--7-7--x12-5-5--x12-7-7--x6-7--x6-5--x6--3-----7-------|
 B--8-8------5-5------8-8-----7-----5------3-----7-------|
 e----------------------------5-----3------1-----5-------|
end
   let ring

 Bridge

 E-------------------------------------------------------0------12-0-----------|
 A----------------------------------------------12-13------0----12---0-0--0----|
 D--4-5-5-4-5--9--7-7\5-5/7-7/10-10-----10---10-------10-----10-10-----10\9----|
 G--5-7-7-5-7--10-9-9\7-7/9-9/12-12--12----9---------------------------12-10---|
 B-----------------------------------------------------------------------------|
 e-----------------------------------------------------------------------------|

 E--------------------------------------------------------12-13-0--------------|
 A-----------------------------------13------0----------0---------0------------|
 D--4-5-5-4-5--7-9---9\5-5/10-10-------10------10----10--------------9\--7\-5--|
 G--5-7-7-5-7--9-10-10\7-7/12-12---------12-------12-----------------10--9--7--|
 B-----------------------------------------------------------------------------|
 e-----------------------------------------------------------------------------|

 E-------5-8-7-5-------------------------------------------------------|
 A------5--------8-8/10-8----------------------------------------------|
 D-----5-----------7/9----9-7-----------9/10\9--7-5\4/5----------------|
 G--5h7-----------------------10-7-5---10/12\10-9-7\5/7----------------|
 B---------------------------------------------------------------------|
 e---------------------------------------------------------------------|

 E---------------------------------------------------------------------|
 A---------------------------------------------------------------------|
 D---------------------------------------------------------------------|
 G------7-9/10-9-10/12-10-12/14-15\14\12\10----------------------------|
 B-----7---------------------------------------------------------------|
 e--7h8----------------------------------------------------------------|

 E---------------------------------------------------------------------|
 A------------------------------------------------------*--------------|
 D--4-5-5-4-5-7--9-10-10--9-7\5--5/7-5/9---9-10-7-9-5-7-4-(*3rd hit 5)-|
 G--5-7-7-5-7-9-10-12-12-10-9-7--7/9-7/10-10----9-\-7------------------|
 B---------------------------------------------------------------------|
 e---------------------------------------------------------------------|
 <     repeat 3x        >*3rd time hit 5

 Back to CHORUS Part A and Part B 2x

end on

 E---5---|
 A---5---|
 D---5---|
 G---7---|
 B---7---|
 e---5---|





Comments


Popular Karate tabs & chords
Die Die Tabs
Fatal Strategies Tabs
First Release Tabs
New Martini Tabs
Number Six Tabs
Outside Is The Drama Tabs
Outside Is The Drama 1 Tabs
Pines Tabs
The State I'm In' Aka 'Goode Buy From Cobbs Creek Park Tabs
This, Plus Slow Song Tabs


Song lyrics



↑ Back to top | Tablatures and chords are parodies/interpretations of the original songs. You may use it for private study, scholarship, research or language learning purposes only
© 2014 AZChords.com Contact us | Privacy policy | DMCA | Add/correct tabs | Request tabs | Top 50 tabs