>
 >
Up Nights

Up Nights Guitar Tabs

Karate - Up Nights chords, tabs, tablatures, lyrics

Guitar lessons | Add/correct | Request | Top 50 tabs Artists:  A B C D E F G H I J K L M N O P Q R S T U V W X Y Z 0-9

Up Nights Guitar Tabs – Karate

CD, Sheet music, Poster

Do you like Up Nights? Share with your friends now
Tabs


Great song, I got some difficulties with the last chords part.
I am waiting for solutions for it. Enjoy this song in spite of
this lack of notes. Crunch sound, quite dirty if you can.


--|----------------------------------------|----------------------------------|
--|----------------------------------------|----------------------------------|
--|----------------------------------------|----------------------------------|
--|--5-5-4-4-2-2-2-2-0--5-5-4-4-2-2-2-2-0--|-7-7-5-5-4-4-4-4-2-5-5-4-4-2-2-2--|
--|----------------------------------------|----------------------------------|
--|----------------------------------------|----------------------------------|
   intro       repeat it many times            then reapeat this

-----|---------------------|--------------------------------------------------|
-----|---------------------|--------------------------------------------------|
-----|---------------0-----|--------------------------------------------------|
-2-0-|-5-5-5-5-5-5-5-5-5-5-|---------5--7------------------------5-7----------|
-----|---------------------|-----5-7------5----5-5h7-5-------5-7--------------|
-----|---------------------|---5-------------8----------8--5----------5---8---|
                              VERSE /distortion

----------------------------------5\---------------|-5-----5--------------5---|
----------------------------------5\-------8--8--8-|-5-(6)-5--------------5---|
------------------5-7-----7\----5-5\-------9--9--9-|-5--7--5-------9-9-9--5-\-|
--5h7-5-------5-7-------5-----5---7\-------9--9--9-|-7--7--7-----7-9-9-9--7-\-|
-7------7-6-5---------6-----5-----7\---3-5-7--7--7-|-7--5--7---5---7-7-7--7-\-|
----------------------------------5\3h5------------|-5--5--5-6------------5---|
                                                     I make some ....

----------------|-------------------------0-----------------------------------|
---------8-8-8--|----------2-------------3--3----------------2-------------3--|
---------9-9-9--|--------2--2-----------0-----0------------2--2-----------0---|
---------9-9-9--|------4------4-------4---------4--------4------4-------4-----|
-----3-5-7-7-7--|----4----------4---5-------------5----4----------4---5-------|
--3h5-----------|--2---------------------------------2------------------------|
                   bridge    : red lights on ...

-0-------------------------------|--------------------------------------------|
---3------------2-5---3---8-8-8--|--------------------------------------------|
-----0---------2--6---4---9-9-9--|5h7-5-5h7-5---------------------------------|
-------4-----4----6---4---9-9-9--|-----7------7-------------------------------|
-----------4------4---2---7-7-7--|---------------5---5-5h7-5------------------|
---------2-----------------------|------------------8-------8--5--------------|
                                    VERSE/varations      (then same as verse)

-|---------------------------------------------------------|------------------|
-|---------------------------------------------------------|------------------|
-|-------------5-5-5-5-5-7-7-7-7-7-2-/-7-7-5-5-4-4-4-4-2---|--9-9-9--5-5-5-5--|
-|-5-5-5-5-5-5-5-5-5-5-5-5-5-5-----------------------------|--9-9-9--5-5-5-5--|
-|---------------------------------------------------------|--7-7-7--3-3-3-3--|
-|---------------------------------------------------------|--0-0-0-----------|
       repeat each several times                              final    2x

-|---------------------------------------------------------|------------------|
-|---------------------------------------------------------|------------------|
-|---9-9-x-9-9-x--12-12-12-14-15-15------------------------|------------------|
-|---9-9-x-9-9-x--12-12-12-14-15-15------------------------|------------------|
-|---7-7-x-7-7-x--10-10-10-12-13-13------------------------|------------------|
-|---------------------------------------------------------|------------------|




-------------------------------------------------------------------------|
-------------------------------------------------------------------------|
-5-5---/10\-9-\-7-7-7\-5----/-12\-10\-9--9--9-\-7----5-5-5--5-5-5-5-5-5--|
-5-5---/10\-9-\-7-7-7\-5----/-12\-10\-9--9--9-\-7----5-5-5--5-5-5-5-5-5--|
-3-3---/8-\-7-\-5-5-5\-3----/-10\-8-\-7--7--7-\-5-----------3-3-3-3-3-3--|
-------------------------------------------------------------------------|
       <-repeat-------->      <-- with one of this-----------------------|          end on this

and then this chord prog.

-|----------------------------------------------------------------------------|
-|-5-5-5------------5-5-5------------5-5-5-x-----------5-5-5------------------|
-|-5-5-5-x-12-12-12-5-5-5-x-11-11-11-5-5-5-x-10-10-10--5-5-5-5-5--------------|
-|-7-7-7-x-12-12-12-7-7-7-x-11-11-11-7-7-7-x-10-10-10--7-7-7-7-7--------------|
-|-7-7-7-x-10-10-10-7-7-7-x-9--9--9--7-7-7-x-8--8--8---7-7-7-7-7--------------|
-|-5-5-5------------5-5-5------------5-5-5-------------5-5-5-5-5--------------|


-|------------0---------------------0-----------------------------------------|
-|--------------1--------------1------1-----1-----1---------------------------|
-|------0---------0--------2------2-----2-----2-----2-------------------------|
-|----2-----2------------3----------------------2-----2-----------------------|
-|--0---------------0--3------------------------------------------------------|
-|----------------------------------------------------------------------------|
  outro        two times





Comments


Popular Karate tabs & chords
Halo Of The Strange Bass Tabs
Fatal Strategies Tabs
If You Can Hold Your Breath Tabs
New Martini Tabs
New Martini 1 Tabs
Outside Is The Drama Tabs
Outside Is The Drama 1 Tabs
Pines Tabs
This, Plus Slow Song Tabs
Water Tabs


Song lyrics



↑ Back to top | Tablatures and chords are parodies/interpretations of the original songs. You may use it for private study, scholarship, research or language learning purposes only
© 2014 AZChords.com Contact us | Privacy policy | DMCA | Add/correct tabs | Request tabs | Top 50 tabs