» » »

This, Plus Slow Song Tabs (ver.1)

Artists:  A B C D E F G H I J K L M N O P Q R S T U V W X Y Z # 

This, Plus Slow Song Tabs (ver.1)

Karate
Rating:
0/5 (0 votes)

Hard to play? Try these video lessons and learn fast.
                 D7sus2                Am/F               D7sus2/A
      x x 0 2 1 0          x x 3 2 1 0          x 0 0 2 1 0

         Fadd9/A              C5/G                   G
      x 0 3 2 1 3          x x 5 5 8 8          3 5 5 4 3 3

          Am                 Amopen                C5/GIX
      5 7 7 5 5 5          x 0 2 2 1 0          x 10 10 12 13 x

        Dsus4                Cadd4                A7sus2/E
      x 5 5 7 8 x          x 3 3 5 5 3          x 7 7 9 8 7

        Asus2/E               Dm/A                 D°/A
      x 7 7 9 10 7         x x 6 6 5 x          x x 6 6 7 x

        Fmaj7sus2/C           Fsus2/C
      x 3 3 5 5 3          x 3 3 5 6 3

Very Slow Rock Q=50
4/4

Verse
    W          W          W          H.      Q
||--0--------|-0--------|-0--------|-3-------8\---|
||o-1--------|-1--------|-1--------|-1-------8\---|
||--2--------|-2--------|-2--------|-2-------5\---|
||--0--------|-3--------|-0--------|-3-------5\---|
||o----------|----------|-0--------|-0------------|
||-----------|----------|----------|--------------|

Chorus                                                   1X
  W          H.      Q     H.      S S S S   Q.   H    E
|-3--------|-5-------8\--|-3-------------0-|-1----0-------||
|-3--------|-5-------8\--|-3-------0h1-3---|-1----1------o||
|-4--------|-5-------5\--|-4-------0-------|-2----2-------||
|-5--------|-7-------5\--|-5---------------|-3----2-------||
|-5--------|-7-----------|-5---------------|-0----0------o||
|-3--------|-5-----------|-3---------------|--------------||

Outro
   S  S  E. E. E. S S E S   S E E. E. S S S S S E
|--------------3--3-----3-|--------7--7-----7-----|
|-13-13-13--8--5--5-5---5-|-5---8--8----8-----8---|
|-12-12-12--7--5--5---5-5-|---5-7--9------9-----9-|
|-10-10-10--5--3----------|-----5--7--------------|
|-10-10-10--5--3----------|-----5--7--------------|
|-------------------------|-----------------------|


   S  S  E. E. E. S S E S   S E E.  E. S  S S S  S E
|--------------3--3-----3-|---------7--7------7------|
|-13-13-13--8--5--5-5---5-|-5---8--10----10-----10---|
|-12-12-12--7--5--5---5-5-|---5-7---9-------9------9-|
|-10-10-10--5--3----------|-----5---7----------------|
|-10-10-10--5--3----------|-----5---7----------------|
|-------------------------|--------------------------|


  E. S E. S S S T T S Q    E. S E. S E  Q.     E. S E. S S S T T S Q
|------------------------|-3--3-3--3-3-------|------------------------|
|-6--8-6--8-6-5-5h6p5----|-5--6-5--6-5-------|-6--8-6--8-6-5-5h6p5----|
|-7--7-7--7--------------|-5--5-5--5-5-/5----|-7--7-7--7--------------|
|-7--7-7--7--------------|-3--3-3--3-3-------|-7--7-7--7--------------|
|------------------------|-3--3-3--3-3-------|------------------------|
|------------------------|-------------------|------------------------|


  E. S E. S E  S  S  E S S   Q  T T S S S H
|-3--3-3--3-3--------------|--------0----------|
|-5--6-5--6-5-13-13-13-8-8-|-8--1h3---3-1------|
|-5--5-5--5-5-12-12-12-7-7-|-7------------0----|
|-3--3-3--3-3-10-10-10-5-5-|-5-----------------|
|-3--3-3--3-3-10-10-10-5-5-|-5-----------------|
|--------------------------|-------------------|


  Q  S S Q   S  S  E S S    H.      S S S S   Q.   H    E
|-5--5--------------------|---------------0-|-1----0------*|
|-5----5----13-13-13-8-8--|-8-------0h1-3---|-1----1------*|
|-5------5--12-12-12-7-7--|-7-------0-------|-2----2------*|
|-7---------10-10-10-5-5--|-5---------------|-3----2------*|
|-7---------10-10-10-5-5--|-5---------------|-0----0------*|
|-5-----------------------|-----------------|-------------*|
            
Hard to play? Try these video lessons and learn fast. | Correct




comments powered by Disqus
↑ Back to top | Tablatures and chords are parodies/interpretations of the original songs. You may use it for private study, scholarship, research or language learning purposes only