>
 >
Pines

Pines Guitar Tabs

Karate - Pines chords, tabs, tablatures, lyrics

Guitar lessons | Add/correct | Request | Top 50 tabs Artists:  A B C D E F G H I J K L M N O P Q R S T U V W X Y Z 0-9

Pines Guitar Tabs – Karate

CD, Sheet music, Poster

Do you like Pines? Share with your friends now
Tabs
#################################################
Tuning: Standard
Chords:
#################################################

Intro:
 e-------|
 B---4---|
 G---5---|
 D---4---|
 A--(6)--|
 E---4---|

Verse:
 e----------------------------------------------|
 B---6-6--6-6--6-6--4/6/11-11--9---7--6-6--4-4--|
 G---5-5--5-5--6-6--5-6/11-11--8---6--6-6--5-5--|
 D---6-6--6-6--6-6--4-6/11-11--10--8--6-6--4-4--| 2x
 A---4-4--6-6--8-8----8/13-13--11--9--4-4-(6-6)-|
 E-------------6-6-------------------------4-4--|

 e--------------------------------------------------|
 B---6-6--7-7--6-6--7-7--4-4--4-4--7-7--6-6---------|
 G---6-6--6-6--6-6--6-6--6-6--6-6--6-6--6-6---------|
 D---6-6--8-8--6-6--8-8--6-6--6-6--8-8--6-6---------|
 A---8-8--9-9--8-8--9-9--4-4--6-6--9-9--8-8---------|
 E---6-6-------6-6----------------------------------|

 e--------------------------------------------------|
 B---6-6--7-7--6-6--7-7--4-4--4-4--7-7--4-4-4-4-----|
 G---6-6--6-6--6-6--6-6--6-6--6-6--6-6--5-5-5-5-----|
 D---6-6--8-8--6-6--8-8--6-6--6-6--8-8--4-4-4-4-----|
 A---8-8--9-9--8-8--9-9--4-4--6-6--9-9-(6-6-6-6)----|
 E---6-6-------6-6----------------------4-4-4-4-----|

Fill #1:
 e--------------4----------------------------------|
 B-----6-4--------4------6-4---4-------------------|
 G--6------6--------6----6-----5-------------------|
 D--6--------6--------6--6-----4-------------------|
 A--4-------------------------(6)------------------|
 E-(4)-------------------------4-------------------|

Verse

Chorus:

 e---------------------------------------------------|
 B--2--4--4(6)7---7---6----------4-4-----------------|
 G--3--5--6-6-6-5-6---6--6p(0-0)-5-5-----------------|
 D--4--4--6-6-8-4-8---6--6p(0----4-4-- 2nd time 4x---|
 A--4--6--4-6-6-6-9---8--8-------6-6-----------------|
 E--2--4------6-4----------------4-4-----------------|

Fill #1

Solo:

 e-------------------------------------------------------------------6------------------------|
 B-------------------------------------------------------------9---6---9-6--------------------|
 G----------------6--------8-----6--------6-8/10~--h11p10-8\6----8b--------6~------6----------|
 D--------4-----6---8/11~----11\-8------6-----------------------------------------6-8/11~-\---|
 A------4---6/8---------------------6h8----------------------------------------6h8------------|
 E--4/6---------------------------------------------------------------------------------------|

 e------------------------------------------------9-9/11-13-9-----------------------------9---|
 B-------------------------------------9--------9-------------9----------9----9----9----9-----|
 G---------------------------6-8/10br~-------10-----------------11-10h11---11---11---10-------|
 D-\-8p6--------------------6------------11b--------------------------------------------------|
 A-------8-6\4------4-4h6-/8------------------------------------------------------------------|
 E--------------4h6---------------------------------------------------------------------------|

 e------------6-------------6-8-9-------11------------------------------------|
 B------6-8/9---6-7-9------6------11-11-11--6(6)--------4-------4-----6-------|
 G-----6--------6-6-6-----6-------10-11-11--6-6-------6-------6-------6-------|
 D--6h8---------8-8-8--6h8--------11-11-----6-6-----4-------4-------4-4-------|
 A------------------------------------------8-8---6-------4-------4-----------|
 E----------------------------------------------()------()------()------------|

 e------------------------------------11-\---------------------------------|
 B--------6---6-7-9--------6----11-14-11-\-4-4-4-4-7-7-4-4-4-4-------------|
 G----6---6h8-6-6-6----6---6h8--11-11-11-\-6-6-6-6-6-6-5-5-5-5-------------|
 D----6h8-----8-8-8----6h8------11-11------6-6-4-4-8-8-4-4-4-4-------------|
 A-----------------------------------------4-4-6-6-9-9-6-6-6-6-------------|
 E--6----------------6---------------------------------4-4-4-4-------------|

Chorus

Outro:

 e------------------------|
 B------6---6----4--------|
 G--6---6---6----5--------|
 D--6---6---6----4--------|
 A--4---4-------(6)-------|
 E--4---------------------|

END

Tablature explanation:
######################
B            Full Bend
b            1/2  Bend
bb          1/4  Bend
~            Hold note
^(#)      Bend to (#)
/            Slide up
\            Slide down
h            Hammer-on
p            Pull-off
(#)        Ghost note
%            Rest
######################





Comments


Popular Karate tabs & chords
Halo Of The Strange Bass Tabs
Die Die Tabs
First Release Tabs
New Martini Tabs
Number Six Tabs
Outside Is The Drama Tabs
Outside Is The Drama 1 Tabs
The State I'm In' Aka 'Goode Buy From Cobbs Creek Park Tabs
This, Plus Slow Song Tabs
Water Tabs


Song lyrics



↑ Back to top | Tablatures and chords are parodies/interpretations of the original songs. You may use it for private study, scholarship, research or language learning purposes only
© 2014 AZChords.com Contact us | Privacy policy | DMCA | Add/correct tabs | Request tabs | Top 50 tabs