>
 >
Number Six

Number Six Guitar Tabs

Karate - Number Six chords, tabs, tablatures, lyrics

Guitar lessons | Add/correct | Request | Top 50 tabs Artists:  A B C D E F G H I J K L M N O P Q R S T U V W X Y Z 0-9

Number Six Guitar Tabs – Karate

CD, Sheet music, Poster

Do you like Number Six? Share with your friends now
Tabs
      Amadd9               E7+9                 Fmaj7                 Em7
    x x 7 5 5 7         x 7 6 7 8 x         x 8 10 9 10 x         x 7 5 7 5 x

       A7/G                 Dm7                  G5                  Am/E
    x x 5 6 8 5         x 5 7 5 6 5          x x 5 7 8 x          x 7 7 5 5 5

        E11               Ebmaj7
    x 7 6 7 5 5         x 6 5 7 x x



  Very Slow Jazz Q=40
  4/4
  Intro
  Q  +E. S Q  +S  S S S   S S Q  S E Q.   S   E  E  E E  Q.    S S
|-5--(5)----------------|-------------------|----------------------|
|--------8--------------|-5------5----------|-9-10-12---13----10S8-|
|----------7--(7)---5-7-|---7-5----7--------|---------9------------|
|-----------------7-----|------------6------|-6--7--9---10-----7S5-|
|-----------------------|-------------------|---------7------------|
|-----------------------|-------------------|----------------------|



  S S S Q  E E. S E.   E E E E  Q  S T T S  S
|--------------------|------------------------|
|--------------------|------------------------|
|---8-7-5----4----5--|-6-7-9---10--------9-10-|
|--------------------|-------7---------x------|
|---6-5-3----2----3--|-4-5-7----8----x--------|
|--------------------|-------5----------------|


                               rit.
    E.  S  S   E.  S  S  S  E.  S  S
|------------------------------------|
|-----------------------13-15--15-15-|
|-/12--10-12-/14--14-15--------------|
|------------------------------------|
|------------------------------------|
|------------------------------------|


        end rit.                       rit.  2/4

   H     Q.    +E      S E S S E. Q.   S S   H
|-------------------|----------------------|------|
|-15----12----(12)\-|-10S8-----------------|-8----|
|-------------------|------8-7-5--8--------|-7----|
|-------------------|--7S5---------------6-|-6----|
|-------------------|------6-5-3--6----7---|-7----|
|-------------------|----------------------|------|

4/4 end rit.
Verse 1
  W          H     H       Q   +T  S.  H     +E
|-7--------|------------|------------------------|
|-5--------|-8----10----|-10--(10)---------------|
|-5--------|-7-----9----|--9---(9)-9-------------|
|-7--------|-6----10----|-10--(10)----10----(10)-|
|----------|-7-----8----|------------------------|
|----------|------------|------------------------|


  Q.   +S  T T Q  +S  S.S T   +T  S S S S S S S. +H       Q  +S  S. S. H
|--------------5--(5)-5-5-5-|-(5)-5-5-5-5-5-5-5--(5)----|-------------------|
|-5----(5)-----8--(8)-5h6-5-|-(5)h6-5h6-5h6-5h6--(6)----|-8--(8)------------|
|-7----(7)---6--------5-5-5-|-(5)-5-5-5-5-5-5-5--(5)----|-7--(7)----5--7----|
|-5----(5)-5----------5h7-5-|-(5)h7-5h7-5h7-5h7--(7)----|-5--(5)-6-----6----|
|-7----(7)------------------|---------------------------|-------------------|
|---------------------------|---------------------------|-------------------|


                                   Verse 2
  W          Q  +S  S. S. Q  Q     Q.   +S   H     +S
|-5--------|---------------------|-7----(7)p=5-----(5)-|
|-5--------|---------------------|-5----(5)-(5)----(5)-|
|-5--------|--------7--7--7--7\--|-5----(5)-(5)----(5)-|
|-7--------|-5--(5)-6--6--6--6\--|-7----(7)-(7)----(7)-|
|-7--------|--------7--7--7--7\--|---------------------|
|----------|---------------------|---------------------|


  Q.   S S  H       W          Q.   +S  T T Q  S S. S.
|----------------|-----------|--------------5--5-5--5--|
|-8----8---10----|-10--------|-5----(5)-----8--5h6--8--|
|-7----7----9----|--9--------|-7----(7)---6----5-5--5--|
|-6----6---10----|-10--------|-5----(5)-5------5h7--7--|
|-7----7----8----|-----------|-7----(7)----------------|
|----------------|-----------|-------------------------|


  S S S S S S H    +E    Q  +S  S. S. H      H    +E  Q.
|-5-5-5-5-5-5-5----(5)-|-------------------|-5----(5)-5\---|
|-6-5-6-5-6-5h6----(6)-|-8--(8)-------8----|-5----(5)-5\---|
|-5-5-5-5-5-5-5----(5)-|-7--(7)----5--7----|-5----(5)-5\---|
|-7-7-7-7-7-5h7----(7)-|-5--(5)-6-----6----|-7----(7)-7\---|
|----------------------|-------------------|-7----(7)------|
|----------------------|-------------------|---------------|


  W
|----------||
|----------||
|-7--------||
|-5--------||
|-6--------||
|----------||

Solo

|-----------------------------------------------------------|
|------------------------------------------------5s9b10r(9)-|
|------7-10-9p7------------5---5h7-(7)b9r(7)-5--------------|
|-/6-9----------10-9-7-6s5---7-----------------7------------|
|-----------------------------------------------------------|
|-----------------------------------------------------------|



|---------------------------------------------------------------------|
|---------------------------------------------------------------------|
|-------5---5-7b8-5pb7r(5)-------------------------------5---7-----9\-|
|---5h7---7----------------7-5-------------------------5---7---10\----|
|-7----------------------------7-5s3-------3---3-5h7p5----------------|
|------------------------------------3h4-5---5------------------------|



|-----------------------------------------|
|-----------------------------------------|
|---10p9-12-10p9----9h10p9----------------|
|-x--------------12-----------12-10-------|
|--------------------------12-------12p10-|
|-----------------------------------------|



|----------------------------------12-15-17-15------------------|
|-------------------------------12-------------13---------------|
|-----7-9-9h10-9-10s12-10-12s14-------------------14------------|
|-7h8------------------------------------------------14---------|
|-------------------------------------------------------12------|
|----------------------------------------------------------8-5\-|



|-----------------------------------------------------------------------------|
|-----------------------------------------------------------------------------|
|-------------7-10-9p7------------------------------7h8p7b8r(7)-5-------------|
|---------6-9----------10-9-7------9-7----7-10-7-10---------------7-5-------5-|
|-----5-8---------------------10p7-----10-----------------------------7-5-7---|
|-4-7-------------------------------------------------------------------------|



|----------------------------------------------------------|
|----------------------------------------------------------|
|-----5---5-7h8p7-5----------------------------------------|
|-5-7---7-----------7-6-5-------------3---3-5h6p5---3------|
|-------------------------7-6-5s3-3-5---5---------5---/7\--|
|----------------------------------------------------------|



|-------------------------------3-5-3p2--------------------------|
|-----------------------------x----------------------------------|
|-5p4---------------4-5-4s2-x-------------------------2-4---2----|
|-----7-5-4---4-5-7-----------------------5-4-2-2-4-5------------|
|-----------7---------------------------x-----------------5---3--|
|----------------------------------------------------------------|



|--------------------------------------15-12--------------------------------|
|----------------------------7h8-10h12-------13-----------------------------|
|-----------2-4-/5-4-/7-5-/9--------------------14-12-------------/12-12h14-|
|-5-4-2-4-5-------------------------------------------12-------10-----------|
|--------------------------------------------------------10-12--------------|
|---------------------------------------------------------------------------|



|----------------------------------------------------5-7-8-10\-||
|-13p12-15-13p12-------------------------------5-7-8-----------||
|-------------------14-12----------------4-5-7-----------------||
|----------------14-------14-12------5-7-----------------------||
|-------------------------------15-7---------------------------||
|--------------------------------------------------------------||


Outro Licks
|---------------------------------------|
|---------------------------------------|
|---------6---7p6-----------------------|
|-6-7-8-9---9-----9-7-6-----------------|
|-----------------------9-7-------------|
|---------------------------10-7-6-5-4\-|



|-----------------------------------------------12-|
|--------------------------------------------13----|
|--------------------------------12----12-14-------|
|--------7-9-10-9-10s12-10-12s14----14-------------|
|-0s7-10-------------------------------------------|
|--------------------------------------------------|



|15-14p12-------------------------------------------------------------*|
|---------15-13p12----12h13p12----12h13p12----12h13p12----12h13p12h13-*|
|------------------14----------14----------14----------14-------------*|
|---------------------------------------------------------------------*|
|---------------------------------------------------------------------*|
|---------------------------------------------------------------------*|


Duration Legend
---------------
W - whole; H - half; Q - quarter; E - 8th; S - 16th;
T - 32nd; X - 64th; a - acciaccatura
+ - note tied to previous; . - note dotted; .. - note double dotted
Uncapitalized letters represent notes that are staccato (1/2 duration)
Irregular groupings are notated above the duration line
Duration letters will always appear directly above the
note/fret number it represents the
duration for.  Duration letters with no fret number below them represent 
rests.


Tablature Legend
----------------
h   - hammer-on
p   - pull-off
b   - bend
pb  - pre-bend
r   - bend release (if no number after the r, then release immediately)
/\  - slide into or out of (from/to "nowhere")
s   - legato slide
S   - shift slide
=   - hold bend; also acts as connecting device for hammers/pulls


Misc Legend
-----------
|  - bar
||  - double bar
*|  - double bar (ending)
Tempo markers -  = BPM(8/16=s8/s16),
where s8 = swing 8ths, s16 = swing 16ths





Comments


Popular Karate tabs & chords
Fatal Strategies Tabs
New Martini Tabs
New Martini 1 Tabs
Outside Is The Drama Tabs
Outside Is The Drama 1 Tabs
Pines Tabs
The State I'm In' Aka 'Goode Buy From Cobbs Creek Park Tabs
This, Plus Slow Song Tabs
Up Nights Tabs
Water Tabs


Song lyrics



↑ Back to top | Tablatures and chords are parodies/interpretations of the original songs. You may use it for private study, scholarship, research or language learning purposes only
© 2014 AZChords.com Contact us | Privacy policy | DMCA | Add/correct tabs | Request tabs | Top 50 tabs