>
 >
New Martini 1

New Martini 1 Guitar Tabs

Karate - New Martini 1 chords, tabs, tablatures, lyrics

Guitar lessons | Add/correct | Request | Top 50 tabs Artists:  A B C D E F G H I J K L M N O P Q R S T U V W X Y Z 0-9

New Martini 1 Guitar Tabs – Karate

CD, Sheet music, Poster

Do you like New Martini 1? Share with your friends now
TabsTabs v2
#################################################
Tuning: Standard
Chords:/
#################################################

Intro:

Lead guitar

 e---------------------------------------------------------------------------|
 B---------------------------------------------------------------------------|
 G---------------------------------------------------------------------------|
 D------3-----3---3-5-3---3----3---3-5-2---------2---2---2------2-----2------| x2
 A---/5----/5---5-------5---/5---5-------3-0-~-3---3---3---3-0~---3-----3----|
 E-1----------------------------------------------------------------3-----0--|

 e---------------------------------------------------------------------------|
 B---------------------------------------------------------------------------|
 G---------------------------------------------------------------------------|
 D------3---3-5-5/7-5-3---2---2---2-3-2-------2-3-3/5-/10--------------------|
 A---/5---5-------------5---3---3-------3-0-3-------------8-7-\--------------|
 E-1-------------------------------------------------------------------------|

Rhythm guitar:

Repeat Dm and Am (listen closely to the chord changes)

 e---1-----0----3----------------------------------|
 B---3-----1----1----------------------------------|
 G---2-----2----2----------------------------------|
 D---0-----2----2----------------------------------|
 A---------0----0----------------------------------|
 E-------------------------------------------------|

Verse:

Rhythm guitar(its basical an F Am F Am G structure):

 e---1---0---1---0---3------------------------------|
 B---1---1---1---1---0------------------------------|
 G---2---2---2---2---0------------------------------|
 D---3---2---3---2---0------------------------------|
 A---3---0---3---0---2------------------------------|
 E---1-------1-------3------------------------------|

Lead guitar
          F         Am       F         Am      G
 e---------------------------------------------3-----|
 B--------5------------------5-----------------or-8--|
 G----------(5)-----5----------(5)-----5-------------|
 D---------------------------------------------------|
 A---------------------------------------------------|
 E---------------------------------------------------|

lead guitar emphasises only one note, the other are more quiet

Chorus:

Both guitars:

 e--------------------------------------------------|
 B--------------------------------------------------|
 G-------7-7-10-10----9-9-10-9--9-9-10-9------------|
 D---8-8-7-7-10-10-x6-9-9-10-9--9-9-10-9-repeat-----| 2x
 A---8-8-5-5-8--8-----7-7-8--7--7-7-8--7------------|
 E---6-6--------------------------------------------|

Back to Verse and the Chorus

Second time continue Chorus with this and repeat 6x:

 e------------------|
 B------------------|
 G-9-9-10-9---------|
 D-9-9-10-9---x6----|
 A-7-7-8--7---------|
 E------------------|

"I can't remember..."

Post Chorus:

Lead guitar:
                         v G2 Fill 1
 e-------------------------------------------------|
 B-------------------------------------------------|
 G-14----------------------------------------------|
 D-14--12-14-15-14-12-14~--12-14-15-14-12-14-12----|
 A-12-------------------------------------------12-|
 E-------------------------------------------------|
v G2 Fill 2              v G2 Fill 3
 e-------------------------------------------------|
 B-------------------------------------------------|
 G-------------------------------------------------|
 D-12-14-15-14-12-14-12----12-14-15-14-12-14-~-----|
 A---------------------12--------------------------|
 E-------------------------------------------------|
                         v G2 Fill 1              v G2 Fill 2
 e-------------------------------------------------|
 B-------------------------------------------------|
 G-------------------------------------------------|
 D-12-14-15-14-12-14-~-----12-14-15-14-12-14-12----|
 A----------------------------------------------12-|
 E-------------------------------------------------|
                     v G2 Fill 3
 e-------------------------|
 B-------------------------|
 G-------------------------|
 D-12-14-15/17/19-~--------|
 A-------------------------|
 E-------------------------|


 e-------------------------------------------------|
 B-------------------------------------------------|
 G-12-14-15-14-12-14-~--12-14-15-14-12-14-12-------| x2
 D-------------------------------------------12----|
 A-------------------------------------------------|
 E-------------------------------------------------|

 e-------------------------|
 B-------------------------|
 G-------------------------|
 D-12-14-15-14-12-14-~-----|
 A-------------------------|
 E-------------------------|

Guitar 2 Post Chorus Fills/Played softly

Fill 1
 e-----------------------|
 B-----------------------|
 G-14-14-----14-14-------|
 D------(12)------(12)---|
 A-----------------------|
 E-----------------------|
Fill 2
 e-----------------------|
 B-----------------------|
 G-17-17-----17-17-------|
 D------(15)------(15)---|
 A-----------------------|
 E-----------------------|
Fill 3
 e-----------------------|
 B-----------------------|
 G-19-19-----19-19-------|
 D------(17)------(17)---|
 A-----------------------|
 E-----------------------|
Fill 4/Play loosly around this D5 chord structure
with an emphasis on the D note on the B string
 e---------------(end)---|
 B-----15------15--15----|
 G---14--14--14--14--14--|
 D(12)----(12)-----------|
 A-----------------------|
 E-----------------------|

PAUSE/Drum and Bass only

BREAK after the Post Chorus/listen to recording for Rhythm

Both guitars/volume from soft to loud

 e-------------------------------------------------|
 B--13-13----------15-15---------------------------|
 G--12-12- x hits -14-14- x hits ------------------|
 D--10-10----------12-12---------------------------|
 A-------------------------------------------------|
 E-------------------------------------------------|

Both guitars
                                ?approx. 6x each?
 e-------------------------------------------------|
 B--------(0-0-0)-------------13-13---15-15--------|
 G-14-14-\-5-5-5--------------12-12-?-14-14-?------|
 D-14-14-\-5-5-5--x6--end on -10-10---12-12--------|
 A-12-12-\-3-3-3-----------------------------------|
 E-------------------------------------------------|

Then got to Chorus:

Both guitars:

 e--------------------------------------------------|
 B--------------------------------------------------|
 G-------7-7-10-10----9-9-10-9--9-9-10-9------------|
 D---8-8-7-7-10-10-x6-9-9-10-9--9-9-10-9-repeat-----| 2x
 A---8-8-5-5-8--8-----7-7-8--7--7-7-8--7------------|
 E---6-6--------------------------------------------|

End Lead guitar second time with this and repeat 6x:

 e------------------|
 B------------------|
 G-9-9-10-9---------|
 D-9-9-10-9---x6----|
 A-7-7-8--7---------|
 E------------------|

while the Rhythm guitar on the 3rd time
goes along these chords/hard to hear  but its there :)

Each chord a cpouple of times/listen for rhythm
 e------------------|
 B-8-8-8-8-10101010-|
 G-7-7-7-7-9-9-9-9--|
 D-5-5-5-5-7-7-7-7--|
 A------------------|
 E------------------|

Lead ends with this:

 e------------------|
 B------------------|
 G-9-9-10-9---------|
 D-9-9-10-9---x2----|
 A-7-7-8--7---------|
 E------------------|

END

Tablature explanation:
######################
B       Full Bend
b       1/2  Bend
bb      1/4  Bend
~~~~~   Tremolo
^(#)    Bend to (#)
/       Slide up
\       Slide down
h       Hammer-on
p       Pull-off
(#)     Ghost note
%       Rest
######################





Comments


Popular Karate tabs & chords
Die Die Tabs
Fatal Strategies Tabs
New Martini Tabs
Outside Is The Drama Tabs
Outside Is The Drama 1 Tabs
Pines Tabs
The State I'm In' Aka 'Goode Buy From Cobbs Creek Park Tabs
This, Plus Slow Song Tabs
Up Nights Tabs
Water Tabs


Song lyrics



↑ Back to top | Tablatures and chords are parodies/interpretations of the original songs. You may use it for private study, scholarship, research or language learning purposes only
© 2014 AZChords.com Contact us | Privacy policy | DMCA | Add/correct tabs | Request tabs | Top 50 tabs