>
 >
New Martini

New Martini Guitar Tabs

Karate - New Martini chords, tabs, tablatures, lyrics

Guitar lessons | Add/correct | Request | Top 50 tabs Artists:  A B C D E F G H I J K L M N O P Q R S T U V W X Y Z 0-9

New Martini Guitar Tabs – Karate

CD, Sheet music, Poster

Do you like New Martini? Share with your friends now
TabsTabs v2

   
 _|Riff1_________x4|______________x4|
 e|----------------|----------------|
 B|----------------|----------------|
 G|----------------|----------------|
 D|----------------|----------------|
 A|3-3-3-3-3-3-3-3-|----------------|
 E|----------------|3-3-3-3-3-3-3-3-|
 ŻŻŻŻŻŻŻŻŻŻŻŻŻŻŻŻŻŻŻŻŻŻŻŻŻŻŻŻŻŻŻŻŻŻŻŻ

 _|Solo1_______________________________________________________________
 e|----------------|----------------|----------------|----------------|
 B|----------------|----------------|----------------|----------------|
 G|----------------|----------------|----------------|----------------|
 D|--------3-------|----------3---3-|5-3-------3-----|----------3---3^|
 A|-----\5---------|--------5---5---|--------5-------|--------5---5---|
 E|1---------------|----------------|----------------|----------------|
  ŻŻŻŻŻŻŻŻŻŻŻŻŻŻŻŻŻŻŻŻŻŻŻŻŻŻŻŻŻŻŻŻŻŻŻŻŻŻŻŻŻŻŻŻŻŻŻŻŻŻŻŻŻŻŻŻŻŻŻŻŻŻŻŻŻŻŻŻŻ
  (x) No pick note          \x Slide          x^x Pull-off
 ___________________________________________________________________x2|
 e|----------------|----------------|----------------|----------------|
 B|----------------|----------------|----------------|----------------|
 G|----------------|----------------|----------------|----------------|
 D^0-2-------------|----------2---2-|--2---------2---|----------2-----|
 A|----3-0---------|--------3---3---|3---3-0-------3-|------------3---|
 E|----------------|----------------|----------------|3-------------3-|
  ŻŻŻŻŻŻŻŻŻŻŻŻŻŻŻŻŻŻŻŻŻŻŻŻŻŻŻŻŻŻŻŻŻŻŻŻŻŻŻŻŻŻŻŻŻŻŻŻŻŻŻŻŻŻŻŻŻŻŻŻŻŻŻŻŻŻŻŻŻ
 ______________________________________________________________________
 e|----------------|----------------|----------------|----------------|
 B|----------------|----------------|----------------|----------------|
 G|----------------|----------------\----------------|----------------|
 D|--------3-------|----------3-5---57---5---3-------|2---------3---3^|
 A|-----\5---------|--------5-------|------------5---|--------5---5---|
 E|1---------------|----------------|----------------|----------------|
  ŻŻŻŻŻŻŻŻŻŻŻŻŻŻŻŻŻŻŻŻŻŻŻŻŻŻŻŻŻŻŻŻŻŻŻŻŻŻŻŻŻŻŻŻŻŻŻŻŻŻŻŻŻŻŻŻŻŻŻŻŻŻŻŻŻŻŻŻŻ
 _______________________________________________________________________
 e|----------------|----------------|-----------------|----------------|
 B|----------------|----------------|-----------------|----------------|
 G|----------------|----------------|-------\---------|----------------|
 D(0)2-------------|----------2-3---|--5----510-------|----------------|
 A|----3-0---------|--------3-------|---------------8-|--7~------------|
 E|----------------|----------------|-----------------|----------------|
  ŻŻŻŻŻŻŻŻŻŻŻŻŻŻŻŻŻŻŻŻŻŻŻŻŻŻŻŻŻŻŻŻŻŻŻŻŻŻŻŻŻŻŻŻŻŻŻŻŻŻŻŻŻŻŻŻŻŻŻŻŻŻŻŻŻŻŻŻŻ

 _|Riff2_(Guitar2 plays 9~ & 10~ notes ONLY, guitar1 the others)_______
 e|----0-------0---|----0-------0---|----0-------0---|----0-------0---|
 B|--1---1---1---1-|--1---1---1---1-|--1---1---1---1-|--1---1---1---1-|
 G|9~--------------|----------------|----------------|----------------|
 D|----------------|----------------|10~-------------|----------------|
 A|----------------|----------------|----------------|----------------|
 E|----------------|----------------|----------------|----------------|
 ŻŻŻŻŻŻŻŻŻŻŻŻŻŻŻŻŻŻŻŻŻŻŻŻŻŻŻŻŻŻŻŻŻŻŻŻŻŻŻŻŻŻŻŻŻŻŻŻŻŻŻŻŻŻŻŻŻŻŻŻŻŻŻŻŻŻŻŻŻŻ
 ______________________________________________________________________
 e|----0-------0---|----0-------0---|----0-------0---|----0-------0---|
 B|--1---1---1---1-|--1---1---1---1-|--1---1---1---1-|--1---1---1---1-|
 G|9~--------------|----------------|----------------|0---------------|
 D|----------------|----------------|10~-------------|----------------|
 A|----------------|----------------|----------------|----------------|
 E|----------------|----------------|----------------|----------------|
 ŻŻŻŻŻŻŻŻŻŻŻŻŻŻŻŻŻŻŻŻŻŻŻŻŻŻŻŻŻŻŻŻŻŻŻŻŻŻŻŻŻŻŻŻŻŻŻŻŻŻŻŻŻŻŻŻŻŻŻŻŻŻŻŻŻŻŻŻŻŻ
 ______________________________________________________________________
 e|----0-------0---|----0-------0---|----0-------0---|----0-------0---|
 B|--1---1---1---1-|--1---1---1---1-|--1---1---1---1-|--1---1---1---1-|
 G|9~*-------------|----------------|----------------|----------------|
 D|----------------|----------------|10~-------------|----------------|
 A|----------------|----------------|----------------|----------------|
 E|----------------|----------------|----------------|----------------|
 ŻŻŻŻŻŻŻŻŻŻŻŻŻŻŻŻŻŻŻŻŻŻŻŻŻŻŻŻŻŻŻŻŻŻŻŻŻŻŻŻŻŻŻŻŻŻŻŻŻŻŻŻŻŻŻŻŻŻŻŻŻŻŻŻŻŻŻŻŻŻ
 ______________________________________________________________________
 e|----0-------0---|----0-------0---|----0-------0---|----0-0-0-0-0-0-|
 B|--1---1---1---1-|--1---1---1---1-|--1---1---1---1-|----1-1-1-1-1-1-|
 G|9~--------------|2*--------------|----------------|0---0-0-0-0-0-0-|
 D|----------------|----------------|10~----------(10)\---------------|
 A|----------------|----------------|----------------|----------------|
 E|----------------|----------------|----------------|----------------|
 ŻŻŻŻŻŻŻŻŻŻŻŻŻŻŻŻŻŻŻŻŻŻŻŻŻŻŻŻŻŻŻŻŻŻŻŻŻŻŻŻŻŻŻŻŻŻŻŻŻŻŻŻŻŻŻŻŻŻŻŻŻŻŻŻŻŻŻŻŻŻ
  x~ Tremolo  
  9~* no play first time (guitar2)  2* no play first time (guitar1)

  Ħ You can play this riff with one guitar tuning 2nd to B# !

 _|Riff3____________________________|Riff3.1___________________________
 e|----------------|----------------|----------------|----------------|
 B|----------------|----------------|----------------|----------------|
 G|3---3.--7---7.--|10--101010101010|9---9-10--9.----|9---9-10--9.----|
 D|3---3.--7---7.--|10--101010101010|9---9-10--9.----|9---9-10--9.----|
 A|1---1.--5---5.--|8---8-8-8-8-8-8-|7---7-8---7.----|7---7-8---7.----|
 E|----------------|----------------|----------------|----------------|
 ŻŻŻŻŻŻŻŻŻŻŻŻŻŻŻŻŻŻŻŻŻŻŻŻŻŻŻŻŻŻŻŻŻŻŻŻŻŻŻŻŻŻŻŻŻŻŻŻŻŻŻŻŻŻŻŻŻŻŻŻŻŻŻŻŻŻŻŻŻŻ

 _|Riff4_________x2|______________x2|Riff4.1___________________________
 e|----------------|----------------|----------------|----------------|
 B|----------------|----------------|----------------|----------------|
 G|----------------|----------------|----------------|----------------|
 D|5---5-5-5-5-5.--|7---7-7-7-7-7.--|7---7-7---7-7.--|7---7-7---7.----|
 A|7---7-7-7-7-7.--|7---7-7-7-7-7.--|7---7-7---7-7.--|7---7-7---7.----|
 E|----------------|----------------|----------------|----------------|
 ŻŻŻŻŻŻŻŻŻŻŻŻŻŻŻŻŻŻŻŻŻŻŻŻŻŻŻŻŻŻŻŻŻŻŻŻŻŻŻŻŻŻŻŻŻŻŻŻŻŻŻŻŻŻŻŻŻŻŻŻŻŻŻŻŻŻŻŻŻŻ 

 _|RIff4.2___________________________
 e|----------------|----------0.----|
 B|----------------|----------x.----|
 G|------10--9.----|----------9.----|
 D|------10--9.----|----------9.----|
 A|------8---7.----|----------7.----|
 E|----------------|----------------|
 ŻŻŻŻŻŻŻŻŻŻŻŻŻŻŻŻŻŻŻŻŻŻŻŻŻŻŻŻŻŻŻŻŻŻŻŻ

 _|Riff5_________x3|_________________________________________
 e|----------------|----------------|------------------------|
 B|----------------|--1010----1010--|------------------------|
 G|9-9-9-9-9-9-9-9-|9-----9-9-----9-|12-12-12-12-12-12-12-12-|
 D|7-7-7-7-7-7-7-7-|7-----7-7-----7-|10-10-10-10-10-10-10-10-|
 A|7-7-7-7-7-7-7-7-|7-----7-7-----7-|10-10-10-10-10-10-10-10-|
 E|----------------|----------------|------------------------|
 ŻŻŻŻŻŻŻŻŻŻŻŻŻŻŻŻŻŻŻŻŻŻŻŻŻŻŻŻŻŻŻŻŻŻŻŻŻŻŻŻŻŻŻŻŻŻŻŻŻŻŻŻŻŻŻŻŻŻŻŻ
 _____________________________________________________________________
 e|--------------------|------------------------|--------------------|
 B|--1313------1313----|------------------------|--1515-------1515---|
 G|12-----12-12-----12-|14-14-14-14-14-14-14-14-|14-----14-14-----14-|
 D|10-----10-10-----10-|12-12-12-12-12-12-12-12-|12-----12-12-----12-|
 A|10-----10-10-----10-|12-12-12-12-12-12-12-12-|12-----12-12-----12-|
 E|--------------------|------------------------|--------------------|
 ŻŻŻŻŻŻŻŻŻŻŻŻŻŻŻŻŻŻŻŻŻŻŻŻŻŻŻŻŻŻŻŻŻŻŻŻŻŻŻŻŻŻŻŻŻŻŻŻŻŻŻŻŻŻŻŻŻŻŻŻŻŻŻŻŻŻŻŻŻ

 _|Riff6_________________x2|__________x2_first_time_|
 e|------------------------|------------------------|
 B|------------------------|------------------------|
 G|-----h19---------h19----|-----h19---------h19----|
 D|--------h19---------h19-|--------h19---------h19-|
 A|------------------------|------------------------|
 E|13-13-------13-13-------|12-12-------12-12-------|
 ŻŻŻŻŻŻŻŻŻŻŻŻŻŻŻŻŻŻŻŻŻŻŻŻŻŻŻŻŻŻŻŻŻŻŻŻŻŻŻŻŻŻŻŻŻŻŻŻŻŻŻŻ
 _(Last_second_time)________
 e|------------------------|
 B|------------------------|
 G|-----h19---------h19----|
 D|--------h19---h19---h19-|
 A|-----------h19----------|
 E|12-12-------------------|
 ŻŻŻŻŻŻŻŻŻŻŻŻŻŻŻŻŻŻŻŻŻŻŻŻŻŻŻ
  hX Natural harmonic

 _|Solo2_________________________________________________________________
 e|----------------|-----------------|----------------|-----------------|
 B|----------------|-----------------|----------------|-----------------|
 G|9~--------------|------7-9-10-9-7-|9~--------------|------7-9-10-9-7-|
 D|----------------|-----------------|----------------|-----------------|
 A|----------------|-----------------|----------------|-----------------|
 E|----------------|-----------------|----------------|-----------------|
 ŻŻŻŻŻŻŻŻŻŻŻŻŻŻŻŻŻŻŻŻŻŻŻŻŻŻŻŻŻŻŻŻŻŻŻŻŻŻŻŻŻŻŻŻŻŻŻŻŻŻŻŻŻŻŻŻŻŻŻŻŻŻŻŻŻŻŻŻŻŻŻŻ
 _______________________________________________________________________
 e|----------------|----------------|----------------|-----------------|
 B|----------------|----------------|----------------|-----------------|
 G|9~----9---------|-----7-9-10-9-7-|9~----9---------|------7-9-10-9-7-|
 D|--------9-------|----------------|--------9-------|-----------------|
 A|----------------|----------------|----------------|-----------------|
 E|----------------|----------------|----------------|-----------------|
 ŻŻŻŻŻŻŻŻŻŻŻŻŻŻŻŻŻŻŻŻŻŻŻŻŻŻŻŻŻŻŻŻŻŻŻŻŻŻŻŻŻŻŻŻŻŻŻŻŻŻŻŻŻŻŻŻŻŻŻŻŻŻŻŻŻŻŻŻŻŻŻ
 _______________________________________________________________________
 e|----------------|----------------|----------------|-----------------|
 B|----------------|----------------|----------------|-----------------|
 G|9~--------------|-----7-9-10-9-7-|9~----9---------|------7-9-10-----|
 D|----------------|----------------|--------9-------|-----------------|
 A|----------------|----------------|----------------|-----------------|
 E|----------------|----------------|----------------|-----------------|
 ŻŻŻŻŻŻŻŻŻŻŻŻŻŻŻŻŻŻŻŻŻŻŻŻŻŻŻŻŻŻŻŻŻŻŻŻŻŻŻŻŻŻŻŻŻŻŻŻŻŻŻŻŻŻŻŻŻŻŻŻŻŻŻŻŻŻŻŻŻŻ
 ______________________|1______________________________________
 e|--------------------|--------------------|-----------------|
 B|--------------------|--------------------|-----------------|
 G|12----\(14)~--------|-----12-14-15-14-12-|12~--------------|
 D|--------------------|--------------------|-----------------|
 A|--------------------|--------------------|-----------------|
 E|--------------------|--------------------|-----------------|
 ŻŻŻŻŻŻŻŻŻŻŻŻŻŻŻŻŻŻŻŻŻŻŻŻŻŻŻŻŻŻŻŻŻŻŻŻŻŻŻŻŻŻŻŻŻŻŻŻŻŻŻŻŻŻŻŻŻŻŻŻŻŻ
 _______________________________x2_since_1|__________________________________
 e|--------------------|------------------|----------------|----------------|
 B|--------------------|------------------|----------------|----------------|
 G|-----12-14-15-14-12-|12~----12---------|-----7-9-10-9-7-|9~--------------|
 D|--------------------|----------12------|----------------|----------------|
 A|--------------------|------------------|----------------|----------------|
 E|--------------------|------------------|----------------|----------------|
 ŻŻŻŻŻŻŻŻŻŻŻŻŻŻŻŻŻŻŻŻŻŻŻŻŻŻŻŻŻŻŻŻŻŻŻŻŻŻŻŻŻŻŻŻŻŻŻŻŻŻŻŻŻŻŻŻŻŻŻŻŻŻŻŻŻŻŻŻŻŻŻŻŻŻŻŻ
 _|Riff7.0_______________x2|______________________x2|
 e|------------------------|------------------------|
 B|------------------------|------------------------|
 G|12-12-12-12-12-12-12-12-|14-14-14-14-14-14-14-14-|
 D|10-10-10-10-10-10-10-10-|12-12-12-12-12-12-12-12-|
 A|10-10-10-10-10-10-10-10-|12-12-12-12-12-12-12-12-|
 E|------------------------|------------------------|
 ŻŻŻŻŻŻŻŻŻŻŻŻŻŻŻŻŻŻŻŻŻŻŻŻŻŻŻŻŻŻŻŻŻŻŻŻŻŻŻŻŻŻŻŻŻŻŻŻŻŻŻŻ
 _|Riff7_________x2|_______________x2|___________________________________
 e|----------------|-----------------|-----------------|----------------|
 B|----------------|-----------------|-----------------|----------------|
 G|14/-x-4---4-4-x-|14/-x-4---4.--14-|14/-x-4---4.--14-|14/-x-4---4.--x-|
 D|14/-x-5---5-5-x-|14/-x-5---5.--14-|14/-x-5---5.--14-|14B/x-5---5.--x-|
 A|----------------|-----------------|-----------------|----------------|
 E|----------------|-----------------|-----------------|----------------|
 ŻŻŻŻŻŻŻŻŻŻŻŻŻŻŻŻŻŻŻŻŻŻŻŻŻŻŻŻŻŻŻŻŻŻŻŻŻŻŻŻŻŻŻŻŻŻŻŻŻŻŻŻŻŻŻŻŻŻŻŻŻŻŻŻŻŻŻŻŻŻŻŻ
 __________________________________________________
 e|-----------------------|-----------------------|
 B|-----------------------|-----------------------|
 G|12---12-12-12-12-12-12-|14---14-14-14-14-14-14-|
 D|10---10-10-10-10-10-10-|12---12-12-12-12-12-12-|
 A|10---10-10-10-10-10-10-|12---12-12-12-12-12-12-|
 E|-----------------------|-----------------------|
 ŻŻŻŻŻŻŻŻŻŻŻŻŻŻŻŻŻŻŻŻŻŻŻŻŻŻŻŻŻŻŻŻŻŻŻŻŻŻŻŻŻŻŻŻŻŻŻŻŻŻ
  xB Bended note (1/2)

 _|Riff8.0________________________x2|Riff8____________
 e|----------------|----------------|----------------|
 B|----------------|----------------|----------------|
 G|2-2-2-2-2-2-2-2-|2-2-2-2-2-2-2-2-|2---------2-2---|
 D|2-2-2-2-2-2-2-2-|2-2-2-2-2-2-2-2-|2---------2-2---|
 A|0-0-0-0-0-0-0-0-|0-0-0-0-0-0-0-0-|0---0-3b--0-0---|
 E|----------------|----------------|----------------|
 ŻŻŻŻŻŻŻŻŻŻŻŻŻŻŻŻŻŻŻŻŻŻŻŻŻŻŻŻŻŻŻŻŻŻŻŻŻŻŻŻŻŻŻŻŻŻŻŻŻŻŻŻŻ
  xb Bended note (1/4)

 _|Riff9_____________________________
 e|----------------|----------------|
 B|----------------|----------------|
 G|9---9-10--9-9.--|9---9-10--9.----|
 D|----------------|----------------|
 A|----------------|----------------|
 E|----------------|----------------|
 ŻŻŻŻŻŻŻŻŻŻŻŻŻŻŻŻŻŻŻŻŻŻŻŻŻŻŻŻŻŻŻŻŻŻŻŻ

 ________________________________________________________________
 Guitar1: [Riff1]x3[Riff2][Riff3][Riff3.1][Riff3][Riff3.1][Riff2]
 Guitar2: [_Solo1_][Riff2][Riff3][Riff3.1][Riff3][Riff3.1][Riff2]
 Other:           (voices)                               (voices)                           
 ŻŻŻŻŻŻŻŻŻŻŻŻŻŻŻŻŻŻŻŻŻŻŻŻŻI Can't remember !ŻŻŻŻŻŻŻŻŻŻŻŻŻŻŻŻŻŻŻŻŻ
 ___________________________________________________________
 [Riff3][Riff3.1][Riff3][Riff3.1][_____Riff4______][Riff4.1]
 [Riff3][Riff3.1][Riff3][Riff3.1][Riff3.1][Riff3.1][Riff3.1]
 
 ŻI Can't remember :o) !ŻŻŻŻŻŻŻŻŻŻŻŻŻŻŻŻŻŻŻŻŻŻŻŻŻŻŻŻŻŻŻŻŻŻŻŻŻŻŻŻ
 ___________________________________________________________________________
 [Riff5][Riff6][Riff6]    [Riff8.0][Riff8]x8[Riff3][Riff3.1][Riff3][Riff3.1]
 [_______Solo2_______]    [Riff7.0][_Riff7_][Riff3][Riff3.1][Riff3][Riff3.1]
                     (Bass)                         
 ŻŻŻŻŻŻŻŻŻŻŻŻŻŻŻŻŻŻŻŻŻŻŻŻŻŻŻŻŻŻŻŻŻŻŻŻŻŻŻŻŻŻŻbut i can't forget :o) !!ŻŻŻŻŻŻŻ
 ________________________________
 [_____Riff4______][Riff4.2]
 [Riff3.1][Riff3.1][_Riff9_] 
 
 ŻŻŻŻŻŻŻŻŻŻŻŻŻŻŻŻŻŻŻŻŻŻŻŻŻŻŻŻŻŻŻŻ
                                  * Lyrics *

                 I used to know this boredom-potential asleep.
             I can't feel the rain until it cuts across my cheek.
               But i must get paid. I've got to get that check.
                   Let me sign my name before i lose it.
   Let me write this down before i...i can't remember, but i can't forget.
                      I stole this from some writer. 
 I'd have to go and check a book i never read, but the words had that effect.
            Yeah, i must get paid. I've got to get that check.
                  Let me sign my name before i lose it.
                      Let me write this down before...





Comments


Popular Karate tabs & chords
Halo Of The Strange Bass Tabs
Die Die Tabs
Fatal Strategies Tabs
First Release Tabs
If You Can Hold Your Breath Tabs
New Martini 1 Tabs
Number Six Tabs
Outside Is The Drama 1 Tabs
Pines Tabs
The State I'm In' Aka 'Goode Buy From Cobbs Creek Park Tabs


Song lyrics



↑ Back to top | Tablatures and chords are parodies/interpretations of the original songs. You may use it for private study, scholarship, research or language learning purposes only
© 2014 AZChords.com Contact us | Privacy policy | DMCA | Add/correct tabs | Request tabs | Top 50 tabs