>
 >
If You Can Hold Your Breath

If You Can Hold Your Breath Guitar Tabs

Karate - If You Can Hold Your Breath chords, tabs, tablatures, lyrics

Guitar lessons | Add/correct | Request | Top 50 tabs Artists:  A B C D E F G H I J K L M N O P Q R S T U V W X Y Z 0-9

If You Can Hold Your Breath Guitar Tabs – Karate

CD, Sheet music, Poster

Do you like If You Can Hold Your Breath? Share with your friends now
Tabs
#################################################
Tuning: Standard
Chords: /
#################################################

Intro:

 e-----------------------------3-~--------------------------|
 B-----------------------------3-~--------------------------|
 G----5-3----------------------3-~--------------------------|
 D--5-----3----5-3-------------5----------------------------|- slow strum + whammy bar
 A-----------5-----3\1---------5-~--------------------------|
 E---------------------3-1-1/3-3-~--------------------------|

Then this harmincs feedback(not completely sure):

 e-------------------------------------------------|
 B----------x--------------------------------------|
 G----------7-~-(let ring + feedback)--------------|
 D----------x--------------------------------------|
 A----------x--------------------------------------|
 E-------------------------------------------------|

Verse (main):

 e-------------------------------------------------|
 B-------------------------------------------------|
 G-------------------------------------------------| x4
 D-----------3-------------------------------------|
 A-------3-5---5-~---------------------------------|
 E---3h5-------------------------------------------|
"This beer is wine..."

Verse (solo fill):

 e-------------------------------------------------------------------------------|
 B-----------------10------------------------------------------10----------------|
 G-12~-10--------10---12~-10\9---------10h12-10-9------------10---12~-10-12-\----|
 D--------12-~-10--------------10-----------------10-------10------------11-\----|
 A-------------------------------10/12--------------10/12~---------------12-\----|
 E-------------------------------------------------------------------------------|

Back to Verese (main): x4

and Verse (solo fill)

Pre Chorus: 2x

 e-------------------------------------------------|
 B-------------------------------------------------|
 G-------------------------------------------------| x2
 D-----------3--------------3----------------------|
 A-------3-5---5-~------3-5---5~-\-----(% break)---|
 E---3h5------------3h5----------------------------|

Chorus:

part A

 e-----------------------------------------0-------------------------------0--|
 B--------------------0----------------0-----------------0-------------0------|
 G----------------5-----~----------5-----5-----------5-------------5-----5----|
 D--------------5---5------------5---5-------------5---5---------5---5--------|
 A------3-5-0(0)-------------0-3---------------0-3-----------0-3--------------|
 E--3h5-----------------------------------------------------------------------|

then go to this part B:

 e-------------------------------------------------------------------|
 B---------------------0~(3rd time only)-(end with this)-------------|
 G---------------------x-----------------(and to part C)-------------|
 D-----7-7-5---3-3-3(3)3--3-3-3(3)3--------7-7-5-------- repeat 4x---|
 A-----7-7-5---3-3-3(3)3--3-3-3(3)3--------7-7-5---------------------|
 E---/-5-5-3-0-1-1-1-0-1--1-1-1-0-1--------5-5-3---------------------|

part C:

 e-------------------------------------7-------------------------------------------------|
 B-----------0~---------------0~------8--8-----------------------------------------------|
 G-------5--------5/7-7---7-5----9---9-----9/w\~---------------0-----0-----0-----0-------|
 D-----5---5------5/7---7--------9--9----------------------3-----3-----3-----3-----3-----|
 A-0-3----------0--(0)-----------7-7---------------------3---3-----3-----3-----3-----3---|
 E---------------------------------------------------0-1---------------------------------|

part D

 e---------------------------------------------------------7----------|
 B----------0/w\------------------------------------------8--8--------|
 G-------5--------5--5-5/7-7-7/9--9--9-/12-12-12\9--9----9-----9/w\~--|
 D-----5--5-------7--7-7/9-9-9/10-10-10/14-14-14\9--9---9-------------|
 A-0-3------------0--0-0/0-0-0/0--0--0-/0--0--0-\7--7--7--------------|
 E--------------------------------------------------------------------|

----------------------------------|
----------------------------------|
----------0-----0-----0-----0-----|
-------3----3-----3-----3-----3---|
-----3---3----3-----3-----3-----3-|
-0-1------------------------------|


Outro:

 e----------0---------------------------------------|
 B----------0---------------------------------------|
 G----------0-~-(let ring + feedback)------8--/w\~--|
 D----------2---------------------------7--7--------|
 A----------2---------------------------6--6--------|
 E----------0---------------------------7--7--------|

End


Tablature explanation:
######################
~               Hold note
/w\             Whammy Bar/Tremolo
^(#)            Bend to (#)
/               Slide up
\               Slide down
h               Hammer-on
p               Pull-off
%               Rest
######################





Comments


Popular Karate tabs & chords
Halo Of The Strange Bass Tabs
Die Die Tabs
First Release Tabs
New Martini Tabs
New Martini 1 Tabs
Number Six Tabs
Outside Is The Drama Tabs
Outside Is The Drama 1 Tabs
This, Plus Slow Song Tabs
Water Tabs


Song lyrics



↑ Back to top | Tablatures and chords are parodies/interpretations of the original songs. You may use it for private study, scholarship, research or language learning purposes only
© 2014 AZChords.com Contact us | Privacy policy | DMCA | Add/correct tabs | Request tabs | Top 50 tabs