» » »

Karate, First Release Tabs (ver.1)

Artists:  A B C D E F G H I J K L M N O P Q R S T U V W X Y Z # 

First Release Tabs (ver.1)

Karate Tabs
Rating:
0/5 (0 votes)
First Release lessons Tabs too difficult? Try these video lessons and learn fast
                

This song is a very good karate song, not deeper as 'south'
but very pleasant to play. The verse is absolutly great ! And Gavin
and Jeff bring incredible energy.
Many thanks to Antoine for help on tabbing the riff.

-|-1--3---1--3----------------------------------------------------------------|
-|-1--3---1--3-----------6-8~---8h10-8-6-----------------6-5-------6-5-~------|
-|-2--3---2--3----7--7-------------------7-5-7-------x-7-----7-5-7------------|
-|-3--5---3--5------------------------------/~\----x--------------------------|
-|-3--5---3--5----------------------------------------------------------------|
-|-1--3---1--3----------------------------------------------------------------|
   Intro          main riff (x2)           v.bar   rake

---------------------|-------------------|-------------------------------------|
---------------------|-------------------|-------------------------------------|
--7p5h7--5-3--3h5-3--|--7p5h7-3h5-3------|--5--5---3~------5-----5-------------|
-x---/-\-----5-----5-|-x---/-\------5----|--5--5---3~------5-----5-------------|
---------------------|-------------------|--x--x---x--5/7-----7------7---------|
---------------------|-------------------|-------------------------------------|
     v.bar                  v.bar                               d   u  d  u   d
                        last time                     bridge (x4)

--------5~|--1--3--1--3--------5\-3--x-x-3-3-x-x-x----5\-3--x-x----(3)-x-x---|
-------3--|--1--3--1--3--------6\-4--x-x-3-4-x-x-x----6\-4--x-x--1--3--x-x---|
--3~--3---|--2--3--2--3--------7\-5--x-x-3-5-x-x-x----7\-5--x-x--2--3--x-x---|
--3~------|--3--5--3--5----------------------x-x-x----------x-x--3--5--x-x---|
----------|--3--5--3--5----------------------x-x-x----------x-x--3--5--x-x---|
----------|--1--3--1--3------------------------------------------------------|
 last end   Verse "I knew a  love ..."

-----------------------|------------------------|--1--3----1--3--3------------|
--5-3-----3-5-3---5p3--|------------------------|--1--3----1--4--3------------|
--5-3-----3-5-3---5p3--|------------------------|--2--3----2--5--3------------|
5-----5-5-------5------|------------------------|--3--5----3--5--5------------|
-----------------------|------------------------|--3--5----3--3--5------------|
-----------------------|------------------------|--1--3----1-----3------------|
 bridge 2                Verse "When I'm alone"    "You know that all...

--1-3---1-3------------|--------------|--------------------------|------------|
--1-3---1-4-8-8-8-8-6--|--------------|--------------------------|------------|
--2-3---2-5-8-8-8-8-7--|--------------|--------------------------|------------|
--3-5---3-5-8-8-8-8-7--|--------------|--------------------------|------------|
--3-5---3-3-6-6-6-6-5--|--------------|--------------------------|------------|
--1-3---1--------------|--------------|--------------------------|------------|
                 x2      bridge 2       Verse "Now I've got..."       main

------------------------------------------------------------------------------|
------------------------------------------------------------------------------|
------------------------------------------------------------------------------|
------------------------------------------------------------------------------|
------------------------------------------------------------------------------|
------------------------------------------------------------------------------|
 riff then verse
            
Submit corrections

comments powered by Disqus
↑ Back to top | Karate Tabs for First Release. Lyrics for acoustic guitar and electric guitar. Tablatures and chords are parodies/interpretations of the original songs. You may use it for private study, scholarship, research or language learning purposes only