» » »

Karate, Fatal Strategies Tabs (ver.1)

Artists:  A B C D E F G H I J K L M N O P Q R S T U V W X Y Z # 

Fatal Strategies Tabs (ver.1)

Karate Tabs
 Rating:
4/5 (4 votes)
Fatal Strategies lessons Tabs too difficult? Try these video lessons and learn fast
                


Album The bed is in the ocean

this is my interpretation, feel free to change.
please email-me any changes that sound better for you.

E|--0------------------------------------------------------------------------0--0-0-0-0-----0-|
B|--0--------2-----------2--------------2----------2----(0)----0--0--0-0-0-0-0--0-0-0-0-0-0-0-|
G|--4--------2-----------2--------------2----------2-----4-----7--7--7-7-7-7-4--4-4-4-4-4-4-4-|
D|--4------x-0-----------0-------0------0----------0-----4-----7--7--7-7-7-7-4--4-4-4-4-4-4-4-|
A|--2----2--------------------------2--------------------2-----5--5--5-5-5-5-2--2-2-2-2-2-2-2-|
E|------------------1--2--------------------1--2----------------------------------------------|

	   (1)

E|----0-0-------------------------------------------------------------------------------------|
B|----0-0--0-0--0-----------------------------------------------------------------------------|
G|----2-2--x-or-4---9-9-9-9-9-9-9-9-----------------------------------------------------------|
D|----2-2--2-2--2---9-9-9-9-9-9-9-9-----------------------------------------------------------|
A|----0-0--2-2--2---7-7-7-7-7-7-7-7-----------------------------------------------------------|
E|---------0-0--0---0-0-0-0-0-0-0-0-----------------------------------------------------------|
		  Palm muting    (1) again

   Break (repeat it 13 times)					last time

E|--------------------------------------------------------------------------------------------|
B|--------------------------------------------------------------------------------------------|
G|--------------------------------------------------------------------------------------------|
D|--------------4--6--7--------------------------------------------4--6--7--------------------|
A|-----4--5--7-----------------4--5--7--5--4--5-----------4--5--7-----------------------------|
E|--7--------------------5--7--------------------------7--------------------------------------|

   final ( chords looks good, but see yourself for rythm, quite simple )

E|----------------------------------------0--0--0-0---------------------------------------------|
B|-0--0--0-0-0--0---0--0--0-0-0-/0--------0--0--0-0-0--0-0-0--0-0-0--0--0-0-0--0-0-0---0--0--0--|
G|-9--9--9-9-6--6-/-9--9--9-9-6-/11-------4--4--4-4-4--4-4-4--4-4-4--2--2-2-2--2-2-2---4--2--4--|
D|-9--9--9-9-6--6-/-9--9--9-9-6-/11-------4--4--4-4-4--4-4-4--4-4-4--2--2-2-2--2-2-2---4--2--4--|
A|-7--7--7-7-4--4-/-7--7--7-7-4-/9--------2--2--2-2-2--2-2-2--2-2-2--0--0-0-0--0-0-0---2--0--2--|
E|----------------------------------------------------------------------------------------------|

 <-- repeat x 3  > <- variation  >         <-------------repeat x2 ----------------------->
            
Submit corrections

comments powered by Disqus
↑ Back to top | Karate Tabs for Fatal Strategies. Lyrics for acoustic guitar and electric guitar. Tablatures and chords are parodies/interpretations of the original songs. You may use it for private study, scholarship, research or language learning purposes only