» » »

Psycho Love Tabs (ver.1)

Artists:  A B C D E F G H I J K L M N O P Q R S T U V W X Y Z # 

Psycho Love Tabs (ver.1)

Kapatid
Rating:
0/5 (0 votes)

Tabs too difficult? Try these video lessons and learn fast.
                Psycho Love Tab by Kapatid


This song Psycho Love is from Kapatid. Please buy original copy of it. It is a nice song 
a nice album and it really rock you on.. well its 90% accurate.. paki rate

1st Intro:
    ^ v ^ v ^ v ^ v   ^ v ^ v ^ v ^ v   ^ v ^ v ^ v ^ v   ^ v ^ v ^ v ^ v
e|--5-5-x-5-x-5-x-5---8-8-x-8-x-8-x-8---8-8-x-8-x-8-x-8---5-5-x-5-x-5-x-5--|
B|--5-5-x-5-x-5-x-5---8-8-x-8-x-8-x-8---8-8-x-8-x-8-x-8---5-5-x-5-x-5-x-5--|
G|--7-7-x-7-x-7-x-7--1010-x10-x10-x10---9-9-x-9-x-9-x-9---5-5-x-5-x-5-x-5--|
D|--7-7-x-7-x-7-x-7--1010-x10-x10-x10--1010-x10-x10-x10---7-7-x-7-x-7-x-7--|
A|--5-5-x-5-x-5-x-5---8-8-x-8-x-8-x-8--1010-x10-x10-x10---7-7-x-7-x-7-x-7--|
E|--x-x-x-x-x-x-x-x---x-x-x-x-x-x-x x---8-8-x-8-x-8-x-8---5-5-x-5-x-5-x-5--|

Fill in Lead of 1st intro: (the pitew pitew sound =D )
e|----|
B|----|
G|----|
D|----|
A|----|
E|----|

2nd repeat of Intro: 2x
    ^ v ^ v ^ v ^ v   ^ v ^ v ^ v ^ v   ^ v ^ v ^ v ^ v   ^ v ^ v ^ v ^ v
e|--5-5-x-5-x-5-x-5---8-8-x-8-x-8-x-8---8-8-x-8-x-8-x-8---5-5-x-5-x-5-x-5--|
B|--5-5-x-5-x-5-x-5---8-8-x-8-x-8-x-8---8-8-x-8-x-8-x-8---5-5-x-5-x-5-x-5--|
G|--7-7-x-7-x-7-x-7--1010-x10-x10-x10---9-9-x-9-x-9-x-9---5-5-x-5-x-5-x-5--|
D|--7-7-x-7-x-7-x-7--1010-x10-x10-x10--1010-x10-x10-x10---7-7-x-7-x-7-x-7--|
A|--5-5-x-5-x-5-x-5---8-8-x-8-x-8-x-8--1010-x10-x10-x10---7-7-x-7-x-7-x-7--|
E|--x-x-x-x-x-x-x-x---x-x-x-x-x-x-x x---8-8-x-8-x-8-x-8---5-5-x-5-x-5-x-5--|

Fill in lead of 2nd repeat Intro:
e|----------------------------------------------------------------|
B|----------------------------------------------------------------|
G|--7----------10—12/14-12—------7/10-9-------9-x-9-x-9-x-9-------|
D|----------------------------------------------------------------|
A|----------------------------------------------------------------|
E|----------------------------------------------------------------|

e|----------------------------------------------------------------|
B|----------------------------------------------------------------|
G|--5h7--------10—12/14-12—------7/10-9-----14-x-14-x-14-/1-------|
D|----------------------------------------------------------------|
A|----------------------------------------------------------------|
E|----------------------------------------------------------------|

Verse 1:
 Same as Intro

Chorus: (strumming)
e|--5-5-5-5-5-5-5---8-8-8-8-8-8-8---5-5-5-5-5-5-5---8-8-8-8-8-8-8--|
B|--5-5-5-5-5-5-5---8-8-8-8-8-8-8---5-5-5-5-5-5-5---8-8-8-8-8-8-8--|
G|--7-7-7-7-7-7-7---8-8-8-8-8-8-8---5-5-5-5-5-5-5---9-9-9-9-9-9-9--|
D|--7-7-7-7-7-7-7--10101010101010---7-7-7-7-7-7-7--10101010101010--|
A|--5-5-5-5-5-5-5--10101010101010---7-7-7-7-7-7-7--10101010101010--|
E|--x-x-x-x-x-x-x---8-8-8-8-8-8-8---5-5-5-5-5-5-5---8-8-8-8-8-8-8--|

e|--5-5-5-5-5-5-5---8-8-8-8-8-8-8---8-8-8-8-8-8-8---5-5-5-5-5-5-5--|
B|--5-5-5-5-5-5-5---8-8-8-8-8-8-8---8-8-8-8-8-8-8---5-5-5-5-5-5-5--|
G|--7-7-7-7-7-7-7--10101010101010---9-9-9-9-9-9-9---5-5-5-5-5-5-5--|
D|--7-7-7-7-7-7-7--10101010101010--10101010101010---7-7-7-7-7-7-7--|
A|--5-5-5-5-5-5-5---8-8-8-8-8-8-8--10101010101010---7-7-7-7-7-7-7--|
E|--x-x-x-x-x-x-x---x-x-x-x x-x-x---8-8-8-8-8-8-8---5-5-5-5-5-5-5--|

e|--5-5-5-5-5-5-5---3-3-3-3-3-3-3----|
B|--5-5-5-5-5-5-5---3-3-3-3-3-3-3----|
G|--7-7-7-7-7-7-7---5-5-5-5-5-5-5----|
D|--7-7-7-7-7-7-7---5-5-5-5-5-5-5----|
A|--5-5-5-5-5-5-5---3-3-3-3-3-3-3----|
E|--x-x-x-x-x-x-x---x-x-x-x-x-x-x----|

                    ^ ^ ^ ^ ^ ^ ^
e|--5-5-5-5-5-5-5---8-8-8-8-8-8-8----|
B|--5-5-5-5-5-5-5---8-8-8-8-8-8-8----|
G|--7-7-7-7-7-7-7--10101010101010----|
D|--7-7-7-7-7-7-7--10101010101010----|
A|--5-5-5-5-5-5-5---8-8-8-8-8-8-8----|
E|--x-x-x-x-x-x-x---x-x-x-x-x-x-x----|

e|--5-5-5-----------5----------------|
B|--5-5-5-----------5----------------|\
G|--4-4-4-----------7----------------| \
D|--7-7-7-----------7----------------|  3x
A|--7-7-7-----------5----------------|/
E|--5-5-5-----------x----------------|

                           ^ ^ ^ ^ ^ ^ ^ ^ ^
e|--5-5-5-----------5------5-x-5-x-5-x-5-x-5--|
B|--5-5-5-----------5------5-x-5-x-5-x-5-x-5--|
G|--4-4-4-----------7------7-x-7-x-7-x-7-x-7--|
D|--7-7-7-----------7------7-x-7-x-7-x-7-x-7--|
A|--7-7-7-----------5------5-x-5-x-5-x-5-x-5--|
E|--5-5-5-----------x------x-x-x-x-x-x-x-x-x--|

Repeat Intro
e|----------------------------------------------------------------|
B|----------------------------------------------------------------|
G|--7----------10—12/14-12—------7/10-9-------9-x-9-x-9-x-9-------|
D|----------------------------------------------------------------|
A|----------------------------------------------------------------|
E|----------------------------------------------------------------|

e|----------------------------------------------------------------|
B|-------------12/15-13-------------------------------------------|
G|--5h7---------------------------9-10-10/12-----14-x-14-x-14-/1--|
D|----------------------------------------------------------------|
A|----------------------------------------------------------------|
E|----------------------------------------------------------------|

Verse 2:
 Same as Verse 1

Repeat Chorus

After Chorus is Solo:
    v ^ v ^   v ^ v ^   v ^ v ^   v v
e|--5-x-5-x---3-x-3-x---1-x-1-x---3-3---|
B|--5-x-5-x---3-x-3-x---1-x-1-x---3-3---|\
G|--7-x-7-x---5-x-5-x---3-x-3-x---5-5---| \
D|--7-x-7-x---5-x-5-x---3-x-3-x---5-5---| 4x
A|--5-x-5-x---3-x-3-x---1-x-1-x---3-3---|/
E|--x-x-x-x---x-x-x-x---x-x-x-x---x-x---|

e|--5-5-7-5----3-3--7-5----1-1-5-3----3-3-5-3------------|
B|--5-5----7---3-3-----7---1-1----5---3-3----3h5---------|\
G|--7-5-----7--5-3------7--3-1-----5--5-3-------5-5h7----| \
D|--7-5--------5-3---------3-1--------5-3----------------| 2x
A|--5-x--------3-x---------1-x--------3-x----------------|/
E|--x-x--------x-x---------x-x--------x-x----------------|

e|-------------------------------------------------------|
B|-------------------------------------------------------|
G|--5h7-7--7---9-10---12/14-12/1-------------------------|
D|--------------------------------5--7--3---7--9---------|
A|----------------------------------------------7--3-5---|
E|-------------------------------------------------------|

e|-------------------------------------------------------------------------|
B|-------------------------------------------------------------------------|
G|-9-11h13-15-13/16b--13-11-9/13-13/14b--9-9h10--14—14h16-16-18-14-14/21b--|
D|-------------------------------------------------------------------------|
A|-------------------------------------------------------------------------|
E|-------------------------------------------------------------------------|

Repeat Chorus
   ^ v ^ v ^ v ^ v   ^ v ^ v ^ v ^ v   ^ v ^ v ^ v ^ v  ^ v ^ v ^ v ^ v
e|-5-5-x-5-x-5-x-5---8-8-x-8-x-8-x-8---8-8-x-8-x-8-x-8--5-5-x-5-x-5-x-5-|
B|-5-5-x-5-x-5-x-5---8-8-x-8-x-8-x-8---8-8-x-8-x-8-x-8--5-5-x-5-x-5-x-5-|\
G|-7-7-x-7-x-7-x-7--1010-x10-x10-x10---9-9-x-9-x-9-x-9--5-5-x-5-x-5-x-5-| \
D|-7-7-x-7-x-7-x-7--1010-x10-x10-x10--1010-x10-x10-x10--7-7-x-7-x-7-x-7-| 2x
A|-5-5-x-5-x-5-x-5---8-8-x-8-x-8-x-8--1010-x10-x10-x10--7-7-x-7-x-7-x-7-|/
E|-x-x-x-x-x-x-x-x---x-x-x-x-x-x-x x---8-8-x-8-x-8-x-8--5-5-x-5-x-5-x-5-|

Ending:
e|----------------------------------------------------------------|
B|----------------------------------------------------------------|
G|--7----------10—12/14-12—------7/10-9-------9-x-9-x-9-x-9-------|
D|----------------------------------------------------------------|
A|----------------------------------------------------------------|
E|----------------------------------------------------------------|

e|----------------------------------------------------------------|
B|-------------12/15-13-------------------------------------------|
G|--5h7---------------------------9-10-10/12-----14-x-14-x-14-/1--|
D|----------------------------------------------------------------|
A|----------------------------------------------------------------|
E|----------------------------------------------------------------|

e|-------|
B|--6----|\
G|--6----| 4x
D|--4----| /
A|--4----|/
E|-------|


Thnx guys 4 ur time..pls rate..thnx..!!=)

Hello to my baby cindy..love you always and 4ever..=)
Ingat ka always..=)..muuuaaaah..

Hello to my band shakewell

sha>|ewe||
ian bernard (lead, rhythm, vocals) me
jade mark (rhythm, 2nd voice)
james (bass)
jon alec(drums)

Love ya guys..luv ya ol..
Ty ty ty ty ty…
            
Tabs too difficult? Try these video lessons and learn fast.




comments powered by Disqus
↑ Back to top | Tablatures and chords are parodies/interpretations of the original songs. You may use it for private study, scholarship, research or language learning purposes only