» » »

Kapatid, Destination Tabs (ver.1)

Artists:  A B C D E F G H I J K L M N O P Q R S T U V W X Y Z # 

Destination Tabs (ver.1)

Kapatid Tabs
Rating:
4/5 (3 votes)
Destination lessons Tabs too difficult? Try these video lessons and learn fast
                                       DESTINATION BY: KAPATID

  
         NOTE: FOR THOSE WHO EMAIL ME AND REQUESTING FOR TABS.....
                 "PUTANG INA SALAMAT SA TIWALA NYO?!?!"
    
 intro:
e|-----------------------  ------------------------------|
B|-----------------------  ------------------------------|
G|-----------------------  ------------------------------|
D|-----------------------  -----------------12/15--------|
A|-----------------------  ------------------------12----|
E|--7-8--10-11--7-8--5-6-  -7-8--10-11--7-8--------------|

e|---------------------------------------------|
B|---------11----------------------------------|
G|-7/9-9-9-11-14-14-14-14-12-12-12-11-9--11-12-|
D|---------------------------------------------|
A|-5/7-7-7-9--12-12-12-12-10-10-10-9--7--9--10-|
E|---------------------------------------------|

e|----------------------------------------------|
B|---------11-----------------------------------|
G|-7/9-9-9-11-17-17-17-17-15-15-15-14-12--14-15-|
D|----------------------------------------------|
A|-5/7-7-7-9--15-15-15-15-13-13-13-12-10--12-13-|
E|----------------------------------------------|

e|---------------------------------------------|
B|---------11----------------------------------|
G|-7/9-9-9-11-14-14-14-14-12-12-12-11-9--11-12-|
D|---------------------------------------------|
A|-5/7-7-7-9--12-12-12-12-10-10-10-9--7--9--10-|
E|---------------------------------------------|

e|-----------------------|
B|---------11------------|
G|-7/9-9-9-11-14--7--9---|
D|-----------------------|
A|-5/7-7-7-9--12--5--7---|
E|-----------------------|


e|---------------------  ----------------
B|---------------------  ----------------
G|---------------------  ----------------
D|-9b---12-10-13-5-7-9-  -9b----5-7-11-9-
A|----9----------------  ----11----------
E|---------------------  ----------------

               (do this as many times)
e|-9-9-9h10--9-9-9h10--9-9-9h10--9-9-9h10--7h9-7-5-3------|
B|-9-9-9h10--9-9-9h10--9-9-9h10--9-9-9h10-----------------|
G|--------------------------------------------------------|
D|--------------------------------------------------------|
A|--------------------------------------------------------|
E|--------------------------------------------------------|

 no.... i got my destination....
e|-9-9-9----7-7-7--5-5-5-----------------------|
B|-9-9-9--7-7-7-7--5-5-5-----------------------|
G|-7-7-7--7-5-5-5--3-3-3---5-3-5--7-6-5--------|
D|--------5----------------5-3-5--7-6-5----3---|
A|-------------------------3-1-3--5-4-3----3---|
E|-----------------------------------------1---|

    PARA SA MGA TAGA SPHINX BILLIARDS TO.........'KING INA NYO?!?!
            

comments powered by Disqus
↑ Back to top | Kapatid Tabs for Destination. Lyrics for acoustic guitar and electric guitar. Tablatures and chords are parodies/interpretations of the original songs. You may use it for private study, scholarship, research or language learning purposes only