» » »

Kapatid, Banil Tabs (ver.1)

Artists:  A B C D E F G H I J K L M N O P Q R S T U V W X Y Z # 

Banil Tabs (ver.1)

Kapatid Tabs
 Rating:
4/5 (4 votes)
Banil lessons Tabs too difficult? Try these video lessons and learn fast
                
Intro
E---------------|
G---------------|
B------7-----6--|
D------6-----5--|
A------7-----4--|
E------0-----5--|

Solo Part 1
E----------------------------------|sorry wala pang solo di ko pa 
G----------------------------------|nakapa hehe!!!!
B----------------------------------|
D----------------------------------|
A----------------------------------|
E----------------------------------|

Bridge 
E-----------------------|
G-----------------------|
B-7--9---7--4-----------|
D-7--9---7--4-----------|
A-5--7---5--2-----------|
E-----------------------|

E------------------------|
G------------------------|
B------------------------|
D------------------------|
A--7-5-------------------|
E------7-5-----0-2-3-5---|

E---------------------------------|
G---------------------------------|
B---------------------------------|
D---------------------------------|
A--5-6-7(2)--2-0------------5-7---|
E-----------------3-4-5(2)--------|
            
Submit corrections

comments powered by Disqus
↑ Back to top | Kapatid Tabs for Banil. Lyrics for acoustic guitar and electric guitar. Tablatures and chords are parodies/interpretations of the original songs. You may use it for private study, scholarship, research or language learning purposes only