» » »

Kanye West, Homecoming Bass tabs (ver.2)

Artists:  A B C D E F G H I J K L M N O P Q R S T U V W X Y Z # 

Homecoming Bass tabs (ver.2)

Kanye West Tabs
Rating:
1/5 (1 vote)
Homecoming lessons Tabs too difficult? Try these video lessons and learn fast
                     E  S S E  S S E  S S E  S S      E  S S S E.  E  E  E  S S  
G||------------------------------||-----------------------------|
D||-----7-7----7-7----7-7----7-7-||*-----7-7---7---6--7--6--7-7-|
A||--0------0------0------0------||*--0-------------------------|
E||------------------------------||-----------------------------|


  E  S S S E  E.  S E  E  S  
-----7-7---7--8---7-6--4--4-|
----------------------------|
--0-------------------------|
----------------------------|


                                    and sometimes repeat here   
  E  S E.  S S  S S  S  S  S  S  S  S                           
--L--5-2-----8-10---10-12-10----------------------------------||
-----------------------------12-12-14------------------------*||
-------------------------------------------------------------*||
--------------------------------------------------------------||


                                     Until the end   
  E  S S S E  S  S S  S  S  S  S  S  S               
-----7-7---7--8-10---10-12-10----------------------||
--L---------------------------12-12-14------------*||
--------------------------------------------------*||
---------------------------------------------------||




Duration Legend
---------------
W - whole
H - half
Q - quarter
E - 8th
S - 16th
T - 32nd
X - 64th
. - note dotted
|-n-|  - n-tuplets


Tablature Legend
----------------
L - tied note
x - dead note
g - grace note
(n) - ghost note
> - accentuded note
NH - natural harmonic
AH - artificial harmonic
TH - tapped harmonic
SH - semi harmonic
PH - pitch harmonic
h - hammer on
p - pull off
b - bend
br - bendRelease
pb - preBend
pbr - preBendRelease
brb - bendReleaseBend
\n/ - tremolo bar dip
\n - tremolo bar dive
-/n - tremolo bar Release up
/n\ - tremolo bar inverted dip
/n - tremolo bar return
-\n - tremolo bar Release down
S - shift slide
s - legato slide
/ -  slide into from below or out of upwards
\ -  slide into from above or out of downwards
~ - vibrato
W - wide vibrato
tr - trill
TP - tremolo picking
T - tapping
S - slap
P - pop
< - fade in
^ - brush up
v - brush down
            
Submit corrections

comments powered by Disqus
↑ Back to top | Kanye West Bass for Homecoming. Lyrics for acoustic guitar and electric guitar. Tablatures and chords are parodies/interpretations of the original songs. You may use it for private study, scholarship, research or language learning purposes only