» » »

Kanye West, Hell Of A Life Bass tabs (ver.1)

Artists:  A B C D E F G H I J K L M N O P Q R S T U V W X Y Z # 

Hell Of A Life Bass tabs (ver.1)

Kanye West Tabs
 Rating:
3/5 (6 votes)
Hell Of A Life lessons Tabs too difficult? Try these video lessons and learn fast
                -----------------------------------------------------------------------------
-----------------------------------------------------------------------------


Tuning: DROP D :DADG

Get some loud fuzz on this sh*t and jam. This is 100% correct.

Play 1, then play 2, rinse and repeat as needed:

1:
G|--------------------------------------------------------------------------|
D|------------------------6-7-8-----------------------------6-7-8-----------|
A|-------------------------------6-7-8---------------------------- 6-7-8----|
D|-------8-8-8-6--7-8-8--------------------8-8-8-6--7-8-8-------------------|

2:
G|--------------------------------------------------------------------------|
D|------------------6-7-8---------------------------------------------------|
A|--------------------------6-7-8-------------------------------------------|
D|----6-6-6-6-6-6-----------------------------------------------------------|
            
Submit corrections

comments powered by Disqus
↑ Back to top | Kanye West Bass for Hell Of A Life. Lyrics for acoustic guitar and electric guitar. Tablatures and chords are parodies/interpretations of the original songs. You may use it for private study, scholarship, research or language learning purposes only