» » »

Gorgeous Tabs (ver.1)

Artists:  A B C D E F G H I J K L M N O P Q R S T U V W X Y Z # 

Gorgeous Tabs (ver.1)

Kanye West
Rating:
5/5 (3 votes)
Tabs too difficult? Try these video lessons and learn fast.
                -----------------------------------------------------------------------------
-----------------------------------------------------------------------------

Tuning: standard

Rhythm Guitar:
    Dbm  E    F#m
e|-----------------|
B|--5----5----2----|
G|--6-x2-4-x2-2-x4-|
D|--6----6----4----|
A|--4----7---------|
E|------------2----|

Lead Guitar - Intro/Verse/Chorus:
e|---------------------------------------|
B|---------------------------------------|
G|-------9-9~--9-9/11-13--9-9/11-13--9b--|
D|--9/11---------------------------------|
A|---------------------------------------|
E|---------------------------------------|

e|---------------------------------------|
B|---------------------------------------|
G|-------9-9~--9-9/11-13--9b11-9-6~------|
D|--9/11---------------------------------|
A|---------------------------------------|
E|---------------------------------------|

Played at end of chorus and verse:
e|-----------------------------|
B|-----------------------------|
G|-------9-9~--9-9h11~-9-8-6~--|
D|--9/11-----------------------|
A|-----------------------------|
E|-----------------------------|

Verse 4/Solo: For the verse, don't play the double bend.
e|------------------------9---------------------------------------------|
B|------------------------12b14~----------------------------------------|
G|-----------9h11p9-------------------9h11p9-------11b13~-11b13r11p9----|
D|--9/11~-11--------11~------------11--------11~---------------------11~|
A|----------------------------------------------------------------------|
E|----------------------------------------------------------------------|

e|------------------------9--------------------------------|
B|------------------------12b14~---------------------------|
G|-----------9h11p9----------------13/14~13-13--11--9-8-6~-|
D|--9/11~-11--------11~------------------------------------|
A|---------------------------------------------------------|
E|---------------------------------------------------------|


************************************

| /   slide up
| h   hammer-on
| p   pull-off
| ~   vibrato
| b   Bend
| br  Bend release
| brb Bend release bend

************************************
            
Tabs too difficult? Try these video lessons and learn fast.


comments powered by Disqus
↑ Back to top | Tablatures and chords are parodies/interpretations of the original songs. You may use it for private study, scholarship, research or language learning purposes only