>
 >
The Wall 1

The Wall 1 Bass Tabs

Kansas - The Wall 1 chords, tabs, tablatures, lyrics

Guitar lessons | Add/correct | Request | Top 50 tabs Artists:  A B C D E F G H I J K L M N O P Q R S T U V W X Y Z 0-9

The Wall 1 Bass Tabs – Kansas

CD, Sheet music, Poster

Do you like The Wall 1? Share with your friends now
Bass TabsBass Tabs v2ChordsUkulele
The Wall
                                     Kansas


    0:00                                                                        
G---|--------------------------|-----------------------------|------------------
D---|--------------------------|--------------6--------------|------------------
A---|--4--------4--4--------4--|--------------------------6--|--4--------4------
E---|--------------------------|--4--------4--------4--7-----|------------------
                                                                                

                                                                                
G---------------|-----------------------------|---------------------------------
D---------------|--------------6--------------|-----------(5)h7-----7--7--------
A---4--------4--|-----------------------2-----|--0-----0------------------------
E---------------|--4--------4--------------4--|---------------------------------
                                                                                

                                                                                
G------------|-----------(12)h14-----14--14--14--14\---|------------------------
D---7--7--7--|-----------------------------------------|------------------------
A------------|--0-----0--------------------------------|--4--------4--4---------
E------------|-----------------------------------------|------------------------
                                                                                

                                                                                
G---------|-----------------------------|--------------------------|------------
D---------|--------------6--------------|--------------------------|------------
A------4--|--------------------------6--|--4--------4--4--------4--|------------
E---------|--4--------4--------4--7-----|--------------------------|--4---------
                                                                                

                                                                                
G------------------------------|--------------9-----|---------------------------
D---------6--------------------|-----------------9--|--------7------------------
A---------------------------6--|--7-----------------|--5--------------5---------
E------4--------4-----7--------|--------------------|--------------------5------
                                                                                

                                                                                
G---|--------------------|--------------------|---------------------------------
D---|--------------4-----|--------------------|---------------------------------
A---|--4-----------------|--4-----------6-----|---------------------------------
E---|--------------------|--------------------|--4------------------------------
                                                                                

    Vocals, Harpsichord     0:44                                                
G---|-----------------------|-----------------|-----------------|---------------
D---|-----------------------|-----------------|-----------------|---------------
A---|-----------------------|--------4--------|--2--------------|--(2)----------
E---|-----------------------|-----------------|-----------------|---------------
                                                                                

                                                                                
G---------|-----------------|-------------------|-----------------|-------------
D---------|-----------------|-------------------|-----------------|-------------
A---------|--1--------------|--(1)--------------|--2--------------|--(2)--------
E---------|-----------------|-------------------|-----------------|-------------
                                                                                

                                                                                
G------------||------------------|-----------------|----------------------------
D------------||*-----------3-----|--5--------4-----|--2-------------------------
A------4-----||*--6--------------|-----------------|-----------2--------4-------
E------------||------------------|-----------------|----------------------------
                                                                                

                        1:25                                                    
G----||-----------------|-----------------------|-----------------|-------------
D---*||-----------------|-----------------------|--4--------------|-------------
A---*||--6--------------|--------------------6--|-----------------|--4----------
E----||-----------------|--4-----------4--------|-----------------|-------------
                                                                                

                                                                                
G---------|--------------------|-----4--4-----------|---------------------------
D---------|--------------------|--------------------|---------------------------
A---------|-----2--2-----------|--------------------|--1-----1--1--1-----1------
E---------|--------------------|--------------------|---------------------------
                                                                                

                                                                                
G------------------------------|------------------------------------------------
D------------------------------|------------------------------------------------
A---1--1-----1--1--1-----1--1--|--1-----1--1--1-----1--1-----1--1--1-----1------
E------------------------------|------------------------------------------------
                                                                                

                                                                                
G------|-----------------|--------------------||--------------------------|-----
D------|-----------------|--------------------||*-------------------------|-----
A------|--2--------------|--2-----------4-----||*--6-----6\---------------|-----
E------|--------------2--|--------------------||--------------1--------1--|-----
                                                                                

                                                                                
G---------------------------|--------------|------------------||----------------
D---------------------------|--------------|-----------------*||----------------
A---------------------------|--------------|--2-----------4--*||--6-------------
E---3-----3-----2-----2-----|--0-----2--4--|------------------||----------------
                                                                                

       2:12                                                                     
G------|--------------------------|--------------------------|------------------
D------|-----------------4--------|--------------6--4--------|------------------
A------|-----------4--6-----------|-----------4--------------|-----------4------
E------|--------7-----------------|--------6-----------------|--------5---------
                                                                                

                                                                                
G---------------|--------------------------|------------------------------------
D------4--------|--------------3-----------|------------------------------------
A---6-----------|-----------6-----4--------|-----------4--4--3--3---------------
E---------------|--------4-----------------|-----------------------4--4--4------
                                                                                

                                                                                
G------------|--------------------------|-----------------------------|---------
D------------|--------------------------|--------------6--------------|---------
A------------|--4--------4--4--------4--|--------------------------6--|--4------
E---4--4--4--|--------------------------|--4--------4--------4--7-----|---------
                                                                                

                                                                                
G------------------------|--------------------------------------|--------9------
D------------------------|--------------6-----------------------|-----9---------
A---------4--4--------4--|--------------------------------6-----|--7------------
E------------------------|--4--------4--------4-----7-----------|---------------
                                                                                

                                                                                
G------------9-----------9-----------------|--------7-----------7---------------
D---9-----9-----9-----9-----9-----9-----9--|-----7-----7-----7-----7-----7------
A------7-----------7-----------7-----7-----|--5-----------5-----------5---------
E------------------------------------------|------------------------------------
                                                                                

                                                           2:45                 
G---7-----------------|-----6--------8--10--6--------------|--------------------
D------7-----7-----7--|------------------------------------|--------------6-----
A---------5-----5-----|--4---------------------6--4--------|--------------------
E---------------------|------------------------------7--6--|--4-----------------
                                                                                

                                                                                
G------|--------------------|-----------------|--------------------|-----4------
D------|--------------------|-----------------|--------------------|------------
A---6--|--------------------|--4--------------|-----2--2-----------|------------
E------|--2-----------2--4--|-----------------|--------------------|------------
                                                                                

                                                                                
G---4-----------4-----|--------------------------------------------------|------
D---------------------|--------------------------------------------------|------
A------------2-----2--|--1-----1--1--1-----1--1--1-----1--1--1-----1--1--|------
E---------------------|--------------------------------------------------|------
                                                                                

                                                                                
G---------------------------3-----------3-----------|--------------------|------
D---------------------------------3--3--------------|--------------------|------
A---1-----1--1--1-----1--1--------------------1-----|--2-----------------|------
E---------------------------------------------------|-----------------2--|------
                                                                                

                                                                                
G---------------------||--------------------------|-----------------------------
D---------------------||*-------------------------|-----------------------------
A---2-----------4-----||*--6-----6\---------------|-----------------------------
E---------------------||--------------1-----1-----|--3-----3-----2-----2--------
                                                                                

                                                                                
G---|-----------------|---------------------||----------------------------------
D---|-----------------|--------------------*||----------------------------------
A---|-----------------|--2-----------4-----*||--6-----6--6--6-----6--6--6-------
E---|--0--------2--4--|---------------------||----------------------------------
                                                                                

                                                            3:35                
G---------------------|--------------------5--------5-------|-------------------
D---------------------|-----------5--5--5--------5-----5----|-------------------
A---6--6--6-----6--6--|--3--------------------------------3\|-------------------
E---------------------|-------------------------------------|--1--------1--1----
                                                                                

                                                                                
G------------|--------------------------|--------------------------|------------
D------------|--------------------------|--------------------------|------------
A------------|--------------------------|--------------------------|------------
E---------1--|--1--------1--1--------1--|--3--------3--3--------3--|--2---------
                                                                                

                                                                                
G---------------------|--------------------------|------------------------------
D---------------------|--------------------------|------------------------------
A---------------------|--------------------------|------------------------------
E------2--2--------2--|--3--------3--3--------3--|--0--------0--0--------0------
                                                                                

                                                                                
G---|--------------------------|--------------------------|---------------------
D---|--------------------------|--------------------------|---------------------
A---|--------------------------|--------------------------|---------------------
E---|--2--------2--2--------2--|--0--------0--0--------0--|--5-----5-----3------
                                                                                

                                                                                
G------------|--------------------|--------------------|------------------------
D------------|--------------------|--------------------|------------------------
A------------|--5--------5--------|--5--------5--------|--4-----4-----2---------
E------3-----|--------------------|--------------------|------------------------
                                                                                

                                                                                
G---------|--------------------------|--------------------|---------------------
D---------|--------------------------|--------------------|---------------------
A---2-----|--------------------------|--------------------|-----2--2--2---------
E---------|--5-----5-----3-----3-----|-----2--2--2--------|---------------------
                                                                                

                                                                                
G------|------------------------------------------|-----------------------------
D------|------------------------------------------|-----------------------------
A------|--------------------(5)h7-----7-----7-----|--------------------(5)------
E------|--0-----0--0--0---------------------------|--0-----0--0--0--------------
                                                                                

                                                                                
G-------------------------|------------------------------------------|----------
D-------------------------|------------------------------------------|----------
A---h7-----7-----7--7-----|--------------------(5)h7-----7-----7-----|----------
E-------------------------|--0-----0--0--0---------------------------|--0-------
                                                                                

                                                                                
G----------------------------------------|--------------------------|-----------
D----------------------------------------|--------------------------|-----------
A---------------(5)h7-----7-----7--7-----|--7--------7--6--------6--|--4--------
E---0--0--0---------------------------7--|--------7-----------7-----|-----------
                                                                                

                                                                                
G---------|-----------------5-----------|--------------------------|------------
D---------|--------5--5--5--------5-----|--------------------------|------------
A------4--|--3-----------------------3--|--------------------------|------------
E---------|-----------------------------|--5-----5-----4-----2-----|--0---------
                                                                                

                                                                                
G------------||-----------------------------------------------------------------
D------------||-----------------------------------------------------------------
A------------||-----------------------------------------------------------------
E------------||-----------------------------------------------------------------
                                                                                



==                Created with a demo version of BUCKET O' TAB                ==
==                  tablature creation software for Windows                   ==





Comments


Popular Kansas tabs & chords
Carry On My Wayward Son Bass Tabs
Devil Game Tabs
Dust In The Wind Beginners Tabs
Dust In The Wind Complete Tabs
Dust In The WindSolo Tabs
Hold On Tabs
Two Cents Worth Tabs
When The World Was Young (Intro) Tabs
Cheyenne Anthem Ukulele
Reason To Be Ukulele


Song lyrics



↑ Back to top | Tablatures and chords are parodies/interpretations of the original songs. You may use it for private study, scholarship, research or language learning purposes only
© 2014 AZChords.com Contact us | Privacy policy | DMCA | Add/correct tabs | Request tabs | Top 50 tabs