>
 >
Portrait

Portrait Bass Tabs

Kansas - Portrait chords, tabs, tablatures, lyrics

Guitar lessons | Add/correct | Request | Top 50 tabs Artists:  A B C D E F G H I J K L M N O P Q R S T U V W X Y Z 0-9

Portrait Bass Tabs – Kansas

CD, Sheet music, Poster

Do you like Portrait? Share with your friends now
Bass Tabs
Kansas - Portrait (He Knew)

There are some Ties here and there in the song.  You'll figure out where they are.


                q  e  q  e   12x      q  q  e  e   2x       q  e  q     
G---|------||----------------||--||----------------||--||---------------
D---|--6:--||*--------------*||--||*--------------*||--||*--------------
A---|--8:--||*--5--5--5--5--*||--||*--5--5--5--5--*||--||*--5--5--5-----
E---|------||----------------||--||----------------||--||---------------
                                                                        

    e   6x       e  e  e  e  e  e     e  e  e  e  e  e     e  e  e      
G-------||--||------r--------r-----|-----r--------------|-----r---------
D------*||--||*-----e--------e-----|-----e--------------|-----e---------
A---5--*||--||*-----s--------s-----|-----s--------------|--3--s--3------
E-------||--||---5--t--5--5--t--0--|--5--t--5--5--0--5--|-----t---------
                                                                        

    e  e  e     e  e  e  Q   2x  e  e  e  e  e  e     e  e  e  e  e     
G------r-----|---------------||-----r--------r-----|-----r--------------
D---5--e--5--|--------------*||-----e--------e-----|-----e--------------
A------s-----|--2--0--5--7--*||-----s--------s-----|-----s--------------
E------t-----|---------------||--2--t--2--2--t--2--|--0--t--0--0--0-----
                                                                        

    e     e  e  e  e  e  e     e  e  e  e  e  e     e  e  e  e  e  e    
G------|-----r--------r-----|-----r--------------|-----r--------r-------
D------|-----e--------e-----|-----e--------------|-----e--------e-------
A------|-----s--------s-----|-----s-----------2--|--5--s--5--5--s--5----
E---2--|--2--t--2--2--t--2--|--0--t--0--0--4-----|-----t--------t-------
                                                                        

       e  e  e  e  e  e     e  e  e  e  e  e     e  e  e  e  e  e       
G---|-----r--------r-----|-----r--------r-----|-----r--------------|----
D---|-----e--------e-----|-----e--------e-----|-----e--------------|----
A---|--5--s--5--5--s--5--|--5--s--5--5--s--5--|--5--s--5--5--------|----
E---|-----t--------t-----|-----t--------t-----|-----t--------0--1--|----
                                                                        

    H     q  q  e  e     h  e  e     Q  q  e     H     q  q  e  e       
G------|--------------|-----------|-----------|-----|--------------|----
D------|--------2--1--|-----------|--2--1-----|-----|--------2--1--|----
A------|-----2--------|--4-----4--|-----------|-----|-----2--------|----
E---2--|--4-----------|-----4-----|--------4--|--2--|--4-----------|----
                                                                        

    h  e  e     H     H     Q  Q     H     Q  Q     Q  Q     Q  q  e    
G------------|-----|-----|--------|-----|--------|--------|-------------
D------------|--2--|-----|--------|-----|--------|--------|-------------
A---4-----4--|-----|--5--|--------|--0--|--2--3--|--5--3--|--1-----1----
E------4-----|-----|-----|--0--3--|-----|--------|--------|-----3-------
                                                                        

       H     H       e  e  e  e  e  e     e  e  e  e  e  e     e  e     
G---|-----|--r--||------r--------r-----|-----r--------------|-----r-----
D---|-----|--e--||*-----e--------e-----|-----e--------------|-----e-----
A---|--0--|--s--||*--5--s--5--5--s--5--|--5--s--5--5--3--0--|--1--s-----
E---|-----|--t--||------t--------t-----|-----t--------------|-----t-----
                                                                        

    e  e  e  e     e  e  e  e  e  e     e  e  e  e  e  e     e  e  e    
G---------r-----|-----r--------r-----|-----r--------r-----|-----r-------
D---------e-----|-----e--------e-----|-----e--------e-----|-----e-------
A---1--1--s--1--|--1--s-----1--s-----|-----s--------s-----|-----s-------
E---------t-----|-----t--1-----t--3--|--1--t--1--1--t--1--|--1--t--1----
                                                                        

    e  e  e     e  e  e  e  e  e     e  e  e  e  e  e     e  e  e  e    
G------------|-----r--------------|-----r--------------|-----r----------
D------------|-----e--------5-----|-----e--------------|-----e----------
A------0--1--|--3--s--3--3-----3--|-----s--------3--4--|--5--s--5--5----
E---1--------|-----t--------------|--3--t--3--3--------|-----t----------
                                                                        

    e  e     e  e  e  q  e     e  e  e  e  e  e     e  e  e  e  e  e    
G---r-----|-----------------|-----r--------r-----|----------------------
D---e-----|-----------------|-----e--------e-----|----------------------
A---s--5--|--5--3--5--5--3--|--1--s--1--1--s--1--|--1-----1-----1-------
E---t-----|-----------------|-----t--------t-----|-----1-----1-----1----
                                                                        

       e  e  e  e  e  e     e  e  e  e  e  e     e  e  e  e  e  e       
G---|-----r--------r-----|-----r--------------|-----r--------------|----
D---|-----e--------e-----|-----e--------------|-----e--------5-----|----
A---|-----s--------s-----|-----s--------0--1--|--3--s--3--3-----3--|----
E---|--1--t--1--1--t--1--|--1--t--1--1--------|-----t--------------|----
                                                                        

    e  e  e  e  e  e     q  e  q  e     e  e  e  e  e  e     q  e  q    
G------r--------------|--------------|--------------------|-------------
D------e--------------|--------------|--------------------|-------------
A------s--------3--4--|--5--5--5--5--|-----3-----3-----3--|--5--5--5----
E---3--t--3--3--------|--------------|--1-----1-----3-----|-------------
                                                                        

    e     e  e  e  e  e  e     q  e  q  e     e  e  e  e  e  e     H    
G------|--------------------|--------------|--------------------|-------
D------|--------------------|--------------|--------------------|-------
A---5--|-----3-----3-----3--|--5--5--5--5--|--1--0-----3--1-----|-------
E------|--1-----1-----3-----|--------------|--------3--------3--|--3----
                                                                        

       e  e  e  e  e  e   2x       q  e  e  e  e     Q  e  e  e         
G---|---------------------||--||------------------|--------------|------
D---|-----------------3--*||--||*-----------------|--3-----------|------
A---|-----------3--------*||--||*--5--------3-----|-----5--3-----|------
E---|--3--3--5-----5------||--||------3--5-----5--|-----------1--|------
                                                                        

    q  e  e  e  e     q  q  q   4x  q  q  q     e  e  q  q     q  e     
G------------------|------------||-----------|-----r--r--r--|--r--------
D------------------|-----------*||-----------|-----e--e--e--|--e--------
A------------3--5--|-----------*||--2--3--4--|--5--s--s--s--|--s--5-----
E---1--3--5--------|--3--4--5---||-----------|-----t--t--t--|--t--------
                                                                        

    e  e  e     q q  q     q  e  e  e  e     q q  q     q  e  e  e      
G------r-----|----r--r--|--r-----r-----r--|----r--r--|--r--------r------
D------e-----|----e--e--|--e-----e-----e--|----e--e--|--e--------e------
A---5--s--5--|--5\s--s--|--s--5--s--5--s--|--5/s--s--|--s--5--5--s------
E------t-----|----t--t--|--t-----t-----t--|----t--t--|--t--------t------
                                                                        

    e     q q  q     q  e  q  e     e  e  e  e  e  e     q  e  q  e     
G------|----r--r--|--r-----------|--------------------|-----------------
D------|----e--e--|--e-----------|--------------------|-----------------
A---5--|--5\s--s--|--s--5--5--5--|--5--5--5--5--5--5--|--3--3--3--3-----
E------|----t--t--|--t-----------|--------------------|-----------------
                                                                        

       q  e  e  e  e     q  e  q  e     e  e  e  e  e  e     q  e  q    
G---|-----------------|--------------|--------------------|-------------
D---|-----------------|--------------|--------------------|-------------
A---|--3--3--3-----3--|--1--1--1--1--|--1-----1-----1-----|-------------
E---|-----------3-----|--------------|-----1-----1-----1--|--1--1--1----
                                                                        

    e     q  e  e  e  e     q  e  q  e     q  e  e  e  e     q  e  q    
G------|-----------------|--------------|-----------------|--------1----
D------|--------3--3--0--|--1--1--1--1--|--1--1--1--1--1--|--4--4-------
A------|-----3-----------|--------------|-----------------|-------------
E---1--|--1--------------|--------------|-----------------|-------------
                                                                        

    e     e  e  e  e  e  e     q  e  e  e  e     H      e  e  e  e      
G------|--------------------|-----------------|--r--||-----r------------
D---1--|--1--1--1--1--1--1--|-----------------|--e--||-----e------------
A------|--------------------|--------------0--|--s--||--5--s--5--5------
E------|--------------------|--1--1--3--3-----|--t--||-----t------------
                                                                        

    e  e     e  e  e  e  e  e     e  e  e  e  e  e     e  e  e  e  e    
G---r-----|-----r--------------|-----r--------r-----|-----r--------r----
D---e-----|-----e--------------|-----e--------e-----|-----e--------e----
A---s--5--|--5--s--5--5--3--0--|--1--s--1--1--s--1--|--1--s-----1--s----
E---t-----|-----t--------------|-----t--------t-----|-----t--1-----t----
                                                                        

    e     e  e  e  e  e  e     e  e  e  e  e  e     e  e  e  e  e  e    
G------|-----r--------r-----|-----r--------------|-----r----------------
D------|-----e--------e-----|-----e--------------|-----e--------5-------
A------|-----s--------s-----|-----s--------0--1--|--3--s--3--3-----3----
E---3--|--1--t--1--1--t--1--|--1--t--1--1--------|-----t----------------
                                                                        

       e  e  e  e  e  e     e  e  e  e  e  e     e  e  e  q  e     e    
G---|-----r--------------|-----r--------r-----|-----------------|-------
D---|-----e--------------|-----e--------e-----|-----------------|-------
A---|-----s--------3--4--|--5--s--5--5--s--5--|--5--3--5--5--3--|--1----
E---|--3--t--3--3--------|-----t--------t-----|-----------------|-------
                                                                        

    e  e  e  e  e     e  e  e  e  e  e     e  e  e  e  e  e     e  e    
G---r--------r-----|--------------------|-----r--------r-----|-----r----
D---e--------e-----|--------------------|-----e--------e-----|-----e----
A---s--1--1--s--1--|--1-----1-----1-----|-----s--------s-----|-----s----
E---t--------t-----|-----1-----1-----1--|--1--t--1--1--t--1--|--1--t----
                                                                        

    e  e  e  e     e  e  e  e  e  e     e  e  e  e  e  e     q  e  q    
G---------------|-----r--------------|-----r--------------|-------------
D---------------|-----e--------5-----|-----e--------------|-------------
A---------0--1--|--3--s--3--3-----3--|-----s--------3--4--|--5--5--5----
E---1--1--------|-----t--------------|--3--t--3--3--------|-------------
                                                                        

    e     e  e  e  e  e  e     q  e  q  e     e  e  e  e  e  e     q    
G------|--------------------|--------------|--------------------|-------
D------|--------------------|--------------|--------------------|-------
A---5--|-----3-----3-----3--|--5--5--5--5--|-----3-----3-----3--|--5----
E------|--1-----1-----3-----|--------------|--1-----1-----3-----|-------
                                                                        

    e  q  e     e  e  e  e  e  e     H     e  e  e  e  e  e       q     
G------------|--------------------|-----|--------------------||---------
D------------|--------------------|-----|-----------------3--||*--------
A---5--5--5--|--1--0-----3--1-----|-----|-----------3--------||*--5-----
E------------|--------3--------3--|--3--|--3--3--5-----5-----||---------
                                                                        

    e  e  e  e   8x       q  e  e  e  e     q  e  e  e  e     q  e      
G----------------||--||------------------|-----------------|------------
D---------------*||--||*-----------------|-----------------|------------
A---5--5--5--5--*||--||*--5--5--5--5--5--|--5--5--5--5--5--|--5--5------
E----------------||--||------------------|-----------------|------------
                                                                        

    e  e  e     q  q  q   3x  q  e  e  e  e     q  e  e  e  e     q     
G------------|------------||-----------------|-----------------|--------
D------------|-----------*||-----------------|-----------------|--------
A---5--5--5--|-----------*||--5--5--5--5--5--|--5--5--5--5--5--|--5-----
E------------|--3--4--5---||-----------------|-----------------|--------
                                                                        

    e  e  e  e     q  q  q       q  e  e  e  e     Q  e  e  e     e     
G---------------|-----------||------------------|--------------|--------
D---------------|-----------||*-----------------|--5--------7--|--7-----
A---5--5--5--5--|-----------||*--7--------5-----|-----7--5-----|--------
E---------------|--3--5--7--||------6--7-----7--|--------------|--------
                                                                        

    e  e  e  e  e     e  e  e  e  e  e   3x  q  e  e  e  e     Q  e     
G------------------|---------------------||-----------------|-----------
D---5-----9--7--5--|-----7--5-----------*||-----------------|--5--------
A------7-----------|--7--------7--5-----*||--7--------5-----|-----7-----
E------------------|-----------------7---||-----6--7-----7--|-----------
                                                                        

    e  e     e  e  e  e  e  e     e  e  e  e  e  e         e  e  e      
G---------|--------------------|--------------------|-------------------
D------7--|--7--5-----9--7--5--|-----5--------------|--9:---------------
A---5-----|--------7-----------|--7-----7--5-----5--|--8:--5------------
E---------|--------------------|--------------7-----|---------7--5------
                                                                        

    h  q         q  q  q     q  h                                       
G------r--|---------------|-----r--||-----------------------------------
D------e--|--6:-----------|-----e--||-----------------------------------
A------s--|--8:-----------|-----s--||-----------------------------------
E---3--t--|------3--2--1--|--0--t--||-----------------------------------
                                                                        



==                       TABLATURE EXPLANATION                        ==

----------                ----------                ----t---
----5h8--- Hammeron       ----(8)--- Ghost          ----6--- Tap
----------                ---------- Note           --------
----5p8--- Pulloff        ----------                --------

----------                ----------                -----p--
----5/8--- Slide Up       -----x---- Dead           -----7-- Pop
----------                ---------- Note           --s-----
----5\8--- Slide Down     ----------                --5----- Slap 

----------                ||------|| Repeat         --------
----5~~~-- Vibrato        ||*----*||                ---5^--- Bend
----------                ||*----*||                --------
----------                ||------||                --------

----------                ----------                --------
-4:------- Time           ----------                --------
-4:------- Signature      ----------                --------
----------                ----------                --------

Rhythm:
  w = whole note            W = dotted whole
  h = half note             H = dotted half
  q = quarter note          Q = dotted quarter
  e = eighth note           E = dotted eighth
  s = sixteenth note        S = dotted sixteenth
  t = 32nd note             T = dotted 32nd
  x = 64th note             X = dotted 64th
  ^ = triplet

==               Created with BUCKET O' TAB for Windows               ==





Comments


Popular Kansas tabs & chords
Hold On Bass Tabs
Dust In The Wind Chords
Hold On Chords
Carry On My Wayward Son Tabs
Dust In The Wind Intro 1 Tabs
Fight Fire With Fire Tabs
Lonely Street Tabs
Magnum Opus Tabs
Perfect Lover Tabs
Dust In The Wind Intro Ukulele


Song lyrics



↑ Back to top | Tablatures and chords are parodies/interpretations of the original songs. You may use it for private study, scholarship, research or language learning purposes only
© 2014 AZChords.com Contact us | Privacy policy | DMCA | Add/correct tabs | Request tabs | Top 50 tabs