» » »

Dust In The Wind Violin Tabs (ver.1)

Artists:  A B C D E F G H I J K L M N O P Q R S T U V W X Y Z # 

Dust In The Wind Violin Tabs (ver.1)

Kansas
Rating:
0/5 (0 votes)

Hard to play? Try these video lessons and learn fast.
                **I only tab for Guitar Tab Universe!**


Tuning: Standard (EADGBe)

Notes: This is the violin solo I put in my full tab of this song.




    w                         e  se^se e^hs s s s q     e  ss^se e^q.s ss s e.es  q.^s   s s s s s s s s s                                 
e-|-------------------------|-----------------7-8-10--|-----------------5-7-8--7|-5------7-8-7-5---5------|
B-|-5-----------------------|-------------8-10--------|--------------6-8--------|----------------8---8-5--|
G-|-------------------------|-7--54--5-7--------------|-5--4---4-5------------4-|------------------------7|
D-|-------------------------|-------------------------|-----7-------------------|-7----------------------5|
A-|-------------------------|-------------------------|-------------------------|-------------------------|
E-|-------------------------|-------------------------|-------------------------|-------------------------|
                                                                                 h.^e.                  s  




    w                e  se^se e^hs s s s q     e  ss^se e^q.s ss s e.es  q.^s  s  s  s  s  s  s  s  s  s                
e-|----------------|-----------------7-8-10--|-----------------5-7-8--7|-------------------------10-12-13-|
B-|-5--------------|-------------8-10--------|-------------6-8---------|-10----12-13-12-10-12-13----------|
G-|----------------|-7--54--5-7--------------|-5--4---4-5------------4-|----------------------------------|
D-|----------------|-------------------------|-----7-------------------|-7--------------------------5-----|
A-|----------------|-------------------------|-------------------------|----------------------------------|
E-|----------------|-------------------------|-------------------------|----------------------------------|
                                                                         h.^e                       e      




    h  h    s  S  S  S  S  S  S  S  S  S  S  S  S  S  S    h  h    S  S  S  S  S  S  S  S  S  S  S  S  s  s  s  s
e-|-15-15-|-15-17-15----15-------------------------------|-------|----------------------------------------------17-|                                             
B-|-------|----------18----18-17-18-17-15-17-15----15----|-------|-------------------15-17----15-17----15-17-18----| 
G-|-------|-------------------------------------17----16-|-14-14-|-14-16-17-14-16-17-------17-------17-------------|                                                  
D-|-------|----------------------------------------------|-------|-------------------------------------------------|                                    
A-|-------|----------------------------------------------|-------|-------------------------------------------------|              
E-|-12-12-|-12----------------------12-------------------|-12-12-|-------------------------12----------------------|                                          
    h  h    h                       h                      h  h^h                          h^h         




    h  h    s  S  S  S  S  S  S  S  S  S  S  S  S  S  S    h  h 
e-|-15-15-|-15-17-15----15-------------------------------|-------|-----|
B-|-------|----------18----18-17-18-17-15-17-15----15----|-------|-----|
G-|-------|-------------------------------------17----16-|-14-14-|-----|
D-|-------|----------------------------------------------|-------|-----|
A-|-------|----------------------------------------------|-------|-----|
E-|----12-|----------------------------------------------|-12----|-----|
       h^w                                                 w^h.   


**KEY**

w: whole note
h: half note
q: quarter note
e: eighth note
s: sixteenth note
^: tie
            
Hard to play? Try these video lessons and learn fast. | Correct




comments powered by Disqus
↑ Back to top | Tablatures and chords are parodies/interpretations of the original songs. You may use it for private study, scholarship, research or language learning purposes only